ISO-10303-21;
HEADER;
FILE_DESCRIPTION (( 'STEP AP203' ),
    '1' );
FILE_NAME ('49688.step',
    '2021-11-16T15:44:53',
    ( '' ),
    ( '' ),
    'SwSTEP 2.0',
    'SolidWorks 2019',
    '' );
FILE_SCHEMA (( 'CONFIG_CONTROL_DESIGN' ));
ENDSEC;

DATA;
#1 = CYLINDRICAL_SURFACE ( 'NONE', #85, 3.999999999999997335 ) ;
#2 = ADVANCED_BREP_SHAPE_REPRESENTATION ( '49688', ( #88, #164, #92 ), #214 ) ;
#3 = COORDINATED_UNIVERSAL_TIME_OFFSET ( 1, 0, .AHEAD. ) ;
#4 = LOCAL_TIME ( 16, 44, 53.00000000000000000, #127 ) ;
#5 = ADVANCED_FACE ( 'NONE', ( #63 ), #45, .F. ) ;
#6 = CALENDAR_DATE ( 2021, 16, 11 ) ;
#7 = PERSON_AND_ORGANIZATION_ROLE ( 'classification_officer' ) ;
#8 = APPROVAL_ROLE ( '' ) ;
#9 = APPROVAL ( #175, 'UNSPECIFIED' ) ;
#10 =( LENGTH_UNIT ( ) NAMED_UNIT ( * ) SI_UNIT ( .MILLI., .METRE. ) );
#11 = SHAPE_DEFINITION_REPRESENTATION ( #190, #2 ) ;
#12 = ADVANCED_FACE ( 'NONE', ( #183 ), #222, .T. ) ;
#13 = DATE_AND_TIME ( #184, #105 ) ;
#14 = ORIENTED_EDGE ( 'NONE', *, *, #120, .T. ) ;
#15 = PRODUCT ( '49688', '49688', '', ( #131 ) ) ;
#16 = CARTESIAN_POINT ( 'NONE',  ( 6.633814543801952113E-14, 2.999519565323707552E-32, 19.00000000000000000 ) ) ;
#17 = CARTESIAN_POINT ( 'NONE',  ( 6.982962677686238114E-16, -4.000000000000000000, 0.1999999999999991784 ) ) ;
#18 = ADVANCED_FACE ( 'NONE', ( #156, #51 ), #210, .T. ) ;
#19 = FACE_OUTER_BOUND ( 'NONE', #31, .T. ) ;
#20 = CARTESIAN_POINT ( 'NONE',  ( 2.199633243471174140E-13, 2.624579619658239319E-32, 63.00000000000000000 ) ) ;
#21 = CLOSED_SHELL ( 'NONE', ( #177, #188, #47, #39 ) ) ;
#22 = AXIS2_PLACEMENT_3D ( 'NONE', #89, #35, #124 ) ;
#23 = DIRECTION ( 'NONE',  ( -3.491481338843133355E-15, 1.224646799147353207E-16, -1.000000000000000000 ) ) ;
#24 = PERSON_AND_ORGANIZATION ( #97, #151 ) ;
#25 = EDGE_CURVE ( 'NONE', #208, #208, #152, .T. ) ;
#26 = DATE_TIME_ROLE ( 'classification_date' ) ;
#27 = VERTEX_POINT ( 'NONE', #40 ) ;
#28 = APPROVAL ( #58, 'UNSPECIFIED' ) ;
#29 = AXIS2_PLACEMENT_3D ( 'NONE', #16, #57, #171 ) ;
#30 = CC_DESIGN_PERSON_AND_ORGANIZATION_ASSIGNMENT ( #162, #7, ( #110 ) ) ;
#31 = EDGE_LOOP ( 'NONE', ( #168 ) ) ;
#32 = EDGE_LOOP ( 'NONE', ( #207 ) ) ;
#33 = AXIS2_PLACEMENT_3D ( 'NONE', #139, #193, #68 ) ;
#34 = CARTESIAN_POINT ( 'NONE',  ( -3.254963621650262419E-30, -3.800000000000001599, -9.322586334454706368E-16 ) ) ;
#35 = DIRECTION ( 'NONE',  ( 3.491481338843133355E-15, -1.226656096638776648E-16, 1.000000000000000000 ) ) ;
#36 = PRODUCT_DEFINITION_FORMATION_WITH_SPECIFIED_SOURCE ( 'ANY', '', #15, .NOT_KNOWN. ) ;
#37 = DIRECTION ( 'NONE',  ( -3.491481338843133355E-15, 1.224646799147353207E-16, -1.000000000000000000 ) ) ;
#38 = PLANE ( 'NONE',  #197 ) ;
#39 = ADVANCED_FACE ( 'NONE', ( #107 ), #38, .F. ) ;
#40 = CARTESIAN_POINT ( 'NONE',  ( 2.199633243471174140E-13, 3.499999999999992450, 63.00000000000000000 ) ) ;
#41 = APPROVAL_ROLE ( '' ) ;
#42 = EDGE_LOOP ( 'NONE', ( #201 ) ) ;
#43 = CIRCLE ( 'NONE', #73, 3.999999999999994671 ) ;
#44 = EDGE_CURVE ( 'NONE', #170, #170, #157, .T. ) ;
#45 = PLANE ( 'NONE',  #206 ) ;
#46 = APPROVAL_PERSON_ORGANIZATION ( #200, #100, #41 ) ;
#47 = ADVANCED_FACE ( 'NONE', ( #19, #189 ), #194, .T. ) ;
#48 = AXIS2_PLACEMENT_3D ( 'NONE', #69, #106, #192 ) ;
#49 = CARTESIAN_POINT ( 'NONE',  ( 6.633814543801952113E-14, 3.999999999999992450, 19.00000000000000000 ) ) ;
#50 = PRODUCT_RELATED_PRODUCT_CATEGORY ( 'detail', '', ( #15 ) ) ;
#51 = FACE_OUTER_BOUND ( 'NONE', #99, .T. ) ;
#52 = CARTESIAN_POINT ( 'NONE',  ( 6.633814543801952113E-14, 2.999519565323707552E-32, 19.00000000000000000 ) ) ;
#53 = CARTESIAN_POINT ( 'NONE',  ( 6.633814543801952113E-14, -2.326828918379970970E-15, 19.00000000000000000 ) ) ;
#54 = EDGE_CURVE ( 'NONE', #154, #154, #66, .T. ) ;
#55 = UNCERTAINTY_MEASURE_WITH_UNIT (LENGTH_MEASURE( 1.000000000000000082E-05 ), #10, 'distance_accuracy_value', 'NONE');
#56 = CC_DESIGN_APPROVAL ( #28, ( #36 ) ) ;
#57 = DIRECTION ( 'NONE',  ( 3.491481338843133355E-15, -1.224646799147353207E-16, 1.000000000000000000 ) ) ;
#58 = APPROVAL_STATUS ( 'not_yet_approved' ) ;
#59 = PERSON_AND_ORGANIZATION_ROLE ( 'creator' ) ;
#60 = DATE_AND_TIME ( #198, #181 ) ;
#61 = ORIENTED_EDGE ( 'NONE', *, *, #54, .T. ) ;
#62 = CC_DESIGN_APPROVAL ( #9, ( #77 ) ) ;
#63 = FACE_OUTER_BOUND ( 'NONE', #32, .T. ) ;
#64 = CC_DESIGN_PERSON_AND_ORGANIZATION_ASSIGNMENT ( #111, #59, ( #77 ) ) ;
#65 = ORIENTED_EDGE ( 'NONE', *, *, #44, .T. ) ;
#66 = CIRCLE ( 'NONE', #185, 3.800000000000001599 ) ;
#67 = DIRECTION ( 'NONE',  ( 0.0000000000000000000, 1.000000000000000000, 0.0000000000000000000 ) ) ;
#68 = DIRECTION ( 'NONE',  ( 0.0000000000000000000, 1.000000000000000000, 0.0000000000000000000 ) ) ;
#69 = CARTESIAN_POINT ( 'NONE',  ( 2.182175836776958284E-13, -7.654042494670957804E-15, 62.50000000000000000 ) ) ;
#70 = CARTESIAN_POINT ( 'NONE',  ( -1.627481810825131210E-30, 3.057917272063404915E-32, -4.661293167227353184E-16 ) ) ;
#71 = CARTESIAN_POINT ( 'NONE',  ( 0.0000000000000000000, 0.0000000000000000000, 0.0000000000000000000 ) ) ;
#72 = PERSON_AND_ORGANIZATION ( #97, #151 ) ;
#73 = AXIS2_PLACEMENT_3D ( 'NONE', #153, #37, #173 ) ;
#74 = VERTEX_POINT ( 'NONE', #166 ) ;
#75 = APPROVAL_DATE_TIME ( #163, #9 ) ;
#76 = CIRCLE ( 'NONE', #161, 3.500000000000000000 ) ;
#77 = PRODUCT_DEFINITION ( 'UNKNOWN', '', #36, #91 ) ;
#78 = ORIENTED_EDGE ( 'NONE', *, *, #25, .F. ) ;
#79 = ORIENTED_EDGE ( 'NONE', *, *, #120, .F. ) ;
#80 = ORIENTED_EDGE ( 'NONE', *, *, #25, .T. ) ;
#81 = APPLICATION_CONTEXT ( 'configuration controlled 3d designs of mechanical parts and assemblies' ) ;
#82 = FACE_BOUND ( 'NONE', #136, .T. ) ;
#83 = PLANE ( 'NONE',  #202 ) ;
#84 = DIRECTION ( 'NONE',  ( -3.491481338843133355E-15, 1.224646799147353207E-16, -1.000000000000000000 ) ) ;
#85 = AXIS2_PLACEMENT_3D ( 'NONE', #71, #122, #141 ) ;
#86 = CARTESIAN_POINT ( 'NONE',  ( 6.982962677686254878E-16, -2.453312193277551940E-17, 0.1999999999999996503 ) ) ;
#87 = CC_DESIGN_PERSON_AND_ORGANIZATION_ASSIGNMENT ( #93, #195, ( #15 ) ) ;
#88 = MANIFOLD_SOLID_BREP ( 'Corps-Déplacer/Copier1[1]', #21 ) ;
#89 = CARTESIAN_POINT ( 'NONE',  ( 6.982962677686254878E-16, -2.453312193277551940E-17, 0.1999999999999996503 ) ) ;
#90 = APPROVAL_DATE_TIME ( #215, #28 ) ;
#91 = DESIGN_CONTEXT ( 'detailed design', #98, 'design' ) ;
#92 = AXIS2_PLACEMENT_3D ( 'NONE', #113, #108, #178 ) ;
#93 = PERSON_AND_ORGANIZATION ( #97, #151 ) ;
#94 = DATE_TIME_ROLE ( 'creation_date' ) ;
#95 = CALENDAR_DATE ( 2021, 16, 11 ) ;
#96 = APPROVAL_ROLE ( '' ) ;
#97 = PERSON ( 'UNSPECIFIED', 'UNSPECIFIED', 'UNSPECIFIED', ('UNSPECIFIED'), ('UNSPECIFIED'), ('UNSPECIFIED') ) ;
#98 = APPLICATION_CONTEXT ( 'configuration controlled 3d designs of mechanical parts and assemblies' ) ;
#99 = EDGE_LOOP ( 'NONE', ( #65 ) ) ;
#100 = APPROVAL ( #132, 'UNSPECIFIED' ) ;
#101 = FACE_OUTER_BOUND ( 'NONE', #186, .T. ) ;
#102 = AXIS2_PLACEMENT_3D ( 'NONE', #86, #212, #223 ) ;
#103 = VERTEX_POINT ( 'NONE', #128 ) ;
#104 = DIRECTION ( 'NONE',  ( 0.0000000000000000000, 1.000000000000000000, 0.0000000000000000000 ) ) ;
#105 = LOCAL_TIME ( 16, 44, 53.00000000000000000, #115 ) ;
#106 = DIRECTION ( 'NONE',  ( -3.491481338843133355E-15, 1.224646799147353207E-16, -1.000000000000000000 ) ) ;
#107 = FACE_OUTER_BOUND ( 'NONE', #167, .T. ) ;
#108 = DIRECTION ( 'NONE',  ( 0.0000000000000000000, 0.0000000000000000000, 1.000000000000000000 ) ) ;
#109 = ADVANCED_FACE ( 'NONE', ( #82, #101 ), #174, .T. ) ;
#110 = SECURITY_CLASSIFICATION ( '', '', #176 ) ;
#111 = PERSON_AND_ORGANIZATION ( #97, #151 ) ;
#112 = PERSON_AND_ORGANIZATION ( #97, #151 ) ;
#113 = CARTESIAN_POINT ( 'NONE',  ( 0.0000000000000000000, 0.0000000000000000000, 0.0000000000000000000 ) ) ;
#114 = EDGE_CURVE ( 'NONE', #103, #103, #219, .T. ) ;
#115 = COORDINATED_UNIVERSAL_TIME_OFFSET ( 1, 0, .AHEAD. ) ;
#116 = EDGE_LOOP ( 'NONE', ( #78 ) ) ;
#117 = DIRECTION ( 'NONE',  ( -4.275831445896958607E-31, -1.000000000000000000, -1.224646799147353207E-16 ) ) ;
#118 = CLOSED_SHELL ( 'NONE', ( #18, #12, #109, #5 ) ) ;
#119 = ORIENTED_EDGE ( 'NONE', *, *, #44, .F. ) ;
#120 = EDGE_CURVE ( 'NONE', #27, #27, #76, .T. ) ;
#121 = DIRECTION ( 'NONE',  ( 3.491481338843133355E-15, -1.224646799147353207E-16, 1.000000000000000000 ) ) ;
#122 = DIRECTION ( 'NONE',  ( -3.491481338843133355E-15, 1.224646799147353207E-16, -1.000000000000000000 ) ) ;
#123 = DIRECTION ( 'NONE',  ( -3.491481338843133355E-15, 1.224646799147353207E-16, -1.000000000000000000 ) ) ;
#124 = DIRECTION ( 'NONE',  ( -4.333342374871280669E-31, -1.000000000000000000, -1.219727444046192488E-16 ) ) ;
#125 = DIRECTION ( 'NONE',  ( 4.275831445896958607E-31, 1.000000000000000000, 1.224646799147353207E-16 ) ) ;
#126 = PERSON_AND_ORGANIZATION_ROLE ( 'creator' ) ;
#127 = COORDINATED_UNIVERSAL_TIME_OFFSET ( 1, 0, .AHEAD. ) ;
#128 = CARTESIAN_POINT ( 'NONE',  ( 2.182175836776958284E-13, 3.999999999999992450, 62.50000000000000000 ) ) ;
#129 = AXIS2_PLACEMENT_3D ( 'NONE', #211, #23, #125 ) ;
#130 =( NAMED_UNIT ( * ) SI_UNIT ( $, .STERADIAN. ) SOLID_ANGLE_UNIT ( ) );
#131 = MECHANICAL_CONTEXT ( 'NONE', #81, 'mechanical' ) ;
#132 = APPROVAL_STATUS ( 'not_yet_approved' ) ;
#133 = CARTESIAN_POINT ( 'NONE',  ( -6.413786353522001631E-31, 2.249653418127172935E-32, -1.836981421658448278E-16 ) ) ;
#134 = APPROVAL_DATE_TIME ( #13, #100 ) ;
#135 = EDGE_LOOP ( 'NONE', ( #14 ) ) ;
#136 = EDGE_LOOP ( 'NONE', ( #61 ) ) ;
#137 = FACE_OUTER_BOUND ( 'NONE', #217, .T. ) ;
#138 = LOCAL_TIME ( 16, 44, 53.00000000000000000, #160 ) ;
#139 = CARTESIAN_POINT ( 'NONE',  ( 2.199633243471174140E-13, -7.715274834628325378E-15, 63.00000000000000000 ) ) ;
#140 = DIRECTION ( 'NONE',  ( 3.491481338843133355E-15, -1.226656096638776648E-16, 1.000000000000000000 ) ) ;
#141 = DIRECTION ( 'NONE',  ( 4.275831445896957731E-31, 1.000000000000000000, 1.224646799147353207E-16 ) ) ;
#142 = PERSON_AND_ORGANIZATION_ROLE ( 'design_supplier' ) ;
#143 = DATE_AND_TIME ( #6, #138 ) ;
#144 = CC_DESIGN_DATE_AND_TIME_ASSIGNMENT ( #143, #26, ( #110 ) ) ;
#145 = CALENDAR_DATE ( 2021, 16, 11 ) ;
#146 =( NAMED_UNIT ( * ) PLANE_ANGLE_UNIT ( ) SI_UNIT ( $, .RADIAN. ) );
#147 = EDGE_LOOP ( 'NONE', ( #148 ) ) ;
#148 = ORIENTED_EDGE ( 'NONE', *, *, #150, .F. ) ;
#149 = ORIENTED_EDGE ( 'NONE', *, *, #114, .T. ) ;
#150 = EDGE_CURVE ( 'NONE', #74, #74, #43, .T. ) ;
#151 = ORGANIZATION ( 'UNSPECIFIED', 'UNSPECIFIED', '' ) ;
#152 = CIRCLE ( 'NONE', #169, 3.999999999999994671 ) ;
#153 = CARTESIAN_POINT ( 'NONE',  ( 6.633814543801952113E-14, -2.326828918379970970E-15, 19.00000000000000000 ) ) ;
#154 = VERTEX_POINT ( 'NONE', #34 ) ;
#155 = DIRECTION ( 'NONE',  ( -4.282846870592449122E-31, -1.000000000000000000, -1.226656096638776648E-16 ) ) ;
#156 = FACE_OUTER_BOUND ( 'NONE', #42, .T. ) ;
#157 = CIRCLE ( 'NONE', #102, 4.000000000000000000 ) ;
#158 = FACE_OUTER_BOUND ( 'NONE', #205, .T. ) ;
#159 = PERSON_AND_ORGANIZATION ( #97, #151 ) ;
#160 = COORDINATED_UNIVERSAL_TIME_OFFSET ( 1, 0, .AHEAD. ) ;
#161 = AXIS2_PLACEMENT_3D ( 'NONE', #209, #123, #104 ) ;
#162 = PERSON_AND_ORGANIZATION ( #97, #151 ) ;
#163 = DATE_AND_TIME ( #95, #196 ) ;
#164 = MANIFOLD_SOLID_BREP ( 'Corps-Déplacer/Copier1[2]', #118 ) ;
#165 = CC_DESIGN_APPROVAL ( #100, ( #110 ) ) ;
#166 = CARTESIAN_POINT ( 'NONE',  ( 6.633814543801952113E-14, 3.999999999999992450, 19.00000000000000000 ) ) ;
#167 = EDGE_LOOP ( 'NONE', ( #79 ) ) ;
#168 = ORIENTED_EDGE ( 'NONE', *, *, #114, .F. ) ;
#169 = AXIS2_PLACEMENT_3D ( 'NONE', #53, #84, #67 ) ;
#170 = VERTEX_POINT ( 'NONE', #17 ) ;
#171 = DIRECTION ( 'NONE',  ( -4.275831445896958607E-31, -1.000000000000000000, -1.224646799147353207E-16 ) ) ;
#172 = DIRECTION ( 'NONE',  ( -4.275831445896958607E-31, -1.000000000000000000, -1.224646799147353207E-16 ) ) ;
#173 = DIRECTION ( 'NONE',  ( 0.0000000000000000000, 1.000000000000000000, 0.0000000000000000000 ) ) ;
#174 = CONICAL_SURFACE ( 'NONE', #22, 4.000000000000000000, 0.7853981633974439491 ) ;
#175 = APPROVAL_STATUS ( 'not_yet_approved' ) ;
#176 = SECURITY_CLASSIFICATION_LEVEL ( 'unclassified' ) ;
#177 = ADVANCED_FACE ( 'NONE', ( #137 ), #83, .F. ) ;
#178 = DIRECTION ( 'NONE',  ( 1.000000000000000000, 0.0000000000000000000, 0.0000000000000000000 ) ) ;
#179 = APPLICATION_PROTOCOL_DEFINITION ( 'international standard', 'config_control_design', 1994, #98 ) ;
#180 = APPLICATION_PROTOCOL_DEFINITION ( 'international standard', 'config_control_design', 1994, #81 ) ;
#181 = LOCAL_TIME ( 16, 44, 53.00000000000000000, #3 ) ;
#182 = CC_DESIGN_PERSON_AND_ORGANIZATION_ASSIGNMENT ( #72, #142, ( #36 ) ) ;
#183 = FACE_OUTER_BOUND ( 'NONE', #147, .T. ) ;
#184 = CALENDAR_DATE ( 2021, 16, 11 ) ;
#185 = AXIS2_PLACEMENT_3D ( 'NONE', #70, #140, #155 ) ;
#186 = EDGE_LOOP ( 'NONE', ( #119 ) ) ;
#187 = DIRECTION ( 'NONE',  ( 4.275831445896958607E-31, 1.000000000000000000, 1.224646799147353207E-16 ) ) ;
#188 = ADVANCED_FACE ( 'NONE', ( #221, #158 ), #1, .T. ) ;
#189 = FACE_BOUND ( 'NONE', #135, .T. ) ;
#190 = PRODUCT_DEFINITION_SHAPE ( 'NONE', 'NONE',  #77 ) ;
#191 = DIRECTION ( 'NONE',  ( -3.491481338843133355E-15, 1.224646799147353207E-16, -1.000000000000000000 ) ) ;
#192 = DIRECTION ( 'NONE',  ( 0.0000000000000000000, 1.000000000000000000, 0.0000000000000000000 ) ) ;
#193 = DIRECTION ( 'NONE',  ( -3.491481338843133355E-15, 1.224646799147353207E-16, -1.000000000000000000 ) ) ;
#194 = CONICAL_SURFACE ( 'NONE', #33, 3.500000000000000000, 0.7853981633974479459 ) ;
#195 = PERSON_AND_ORGANIZATION_ROLE ( 'design_owner' ) ;
#196 = LOCAL_TIME ( 16, 44, 53.00000000000000000, #216 ) ;
#197 = AXIS2_PLACEMENT_3D ( 'NONE', #20, #191, #187 ) ;
#198 = CALENDAR_DATE ( 2021, 16, 11 ) ;
#199 = APPROVAL_PERSON_ORGANIZATION ( #112, #9, #96 ) ;
#200 = PERSON_AND_ORGANIZATION ( #97, #151 ) ;
#201 = ORIENTED_EDGE ( 'NONE', *, *, #150, .T. ) ;
#202 = AXIS2_PLACEMENT_3D ( 'NONE', #52, #121, #172 ) ;
#203 = DIRECTION ( 'NONE',  ( 3.491481338843133355E-15, -1.224646799147353207E-16, 1.000000000000000000 ) ) ;
#204 = APPROVAL_PERSON_ORGANIZATION ( #24, #28, #8 ) ;
#205 = EDGE_LOOP ( 'NONE', ( #149 ) ) ;
#206 = AXIS2_PLACEMENT_3D ( 'NONE', #133, #203, #117 ) ;
#207 = ORIENTED_EDGE ( 'NONE', *, *, #54, .F. ) ;
#208 = VERTEX_POINT ( 'NONE', #49 ) ;
#209 = CARTESIAN_POINT ( 'NONE',  ( 2.199633243471174140E-13, -7.715274834628325378E-15, 63.00000000000000000 ) ) ;
#210 = CYLINDRICAL_SURFACE ( 'NONE', #129, 3.999999999999993339 ) ;
#211 = CARTESIAN_POINT ( 'NONE',  ( 0.0000000000000000000, 0.0000000000000000000, 0.0000000000000000000 ) ) ;
#212 = DIRECTION ( 'NONE',  ( 3.491481338843133355E-15, -1.226656096638776648E-16, 1.000000000000000000 ) ) ;
#213 = CC_DESIGN_DATE_AND_TIME_ASSIGNMENT ( #60, #94, ( #77 ) ) ;
#214 =( GEOMETRIC_REPRESENTATION_CONTEXT ( 3 ) GLOBAL_UNCERTAINTY_ASSIGNED_CONTEXT ( ( #55 ) ) GLOBAL_UNIT_ASSIGNED_CONTEXT ( ( #10, #146, #130 ) ) REPRESENTATION_CONTEXT ( 'NONE', 'WORKASPACE' ) );
#215 = DATE_AND_TIME ( #145, #4 ) ;
#216 = COORDINATED_UNIVERSAL_TIME_OFFSET ( 1, 0, .AHEAD. ) ;
#217 = EDGE_LOOP ( 'NONE', ( #80 ) ) ;
#218 = CC_DESIGN_SECURITY_CLASSIFICATION ( #110, ( #36 ) ) ;
#219 = CIRCLE ( 'NONE', #48, 4.000000000000000000 ) ;
#220 = CC_DESIGN_PERSON_AND_ORGANIZATION_ASSIGNMENT ( #159, #126, ( #36 ) ) ;
#221 = FACE_OUTER_BOUND ( 'NONE', #116, .T. ) ;
#222 = PLANE ( 'NONE',  #29 ) ;
#223 = DIRECTION ( 'NONE',  ( -4.333342374871280669E-31, -1.000000000000000000, -1.219727444046192488E-16 ) ) ;
ENDSEC;
END-ISO-10303-21;
