ISO-10303-21;
HEADER;
FILE_DESCRIPTION (( 'STEP AP203' ),
    '1' );
FILE_NAME ('49686.step',
    '2021-11-16T15:44:52',
    ( '' ),
    ( '' ),
    'SwSTEP 2.0',
    'SolidWorks 2019',
    '' );
FILE_SCHEMA (( 'CONFIG_CONTROL_DESIGN' ));
ENDSEC;

DATA;
#1 = AXIS2_PLACEMENT_3D ( 'NONE', #17, #117, #78 ) ;
#2 = LOCAL_TIME ( 16, 44, 52.00000000000000000, #86 ) ;
#3 = DIRECTION ( 'NONE',  ( 3.491481338843133355E-15, -1.226656096638776648E-16, 1.000000000000000000 ) ) ;
#4 = CARTESIAN_POINT ( 'NONE',  ( 5.586370142149013368E-14, -1.959434878635765131E-15, 16.00000000000000000 ) ) ;
#5 = EDGE_CURVE ( 'NONE', #44, #44, #36, .T. ) ;
#6 = FACE_OUTER_BOUND ( 'NONE', #26, .T. ) ;
#7 = CALENDAR_DATE ( 2021, 16, 11 ) ;
#8 = PERSON_AND_ORGANIZATION ( #56, #90 ) ;
#9 = DATE_TIME_ROLE ( 'creation_date' ) ;
#10 = PERSON_AND_ORGANIZATION ( #56, #90 ) ;
#11 = AXIS2_PLACEMENT_3D ( 'NONE', #64, #29, #28 ) ;
#12 = AXIS2_PLACEMENT_3D ( 'NONE', #153, #3, #190 ) ;
#13 = APPLICATION_CONTEXT ( 'configuration controlled 3d designs of mechanical parts and assemblies' ) ;
#14 = CARTESIAN_POINT ( 'NONE',  ( 6.982962677686255864E-16, -2.453312193277552248E-17, 0.1999999999999996780 ) ) ;
#15 = CARTESIAN_POINT ( 'NONE',  ( -5.344808899709471798E-31, 1.874706600394512535E-32, -1.530814110402898401E-16 ) ) ;
#16 = FACE_OUTER_BOUND ( 'NONE', #37, .T. ) ;
#17 = CARTESIAN_POINT ( 'NONE',  ( 2.199633243471174140E-13, -7.715274834628325378E-15, 63.00000000000000000 ) ) ;
#18 = DIRECTION ( 'NONE',  ( 1.000000000000000000, 0.0000000000000000000, 0.0000000000000000000 ) ) ;
#19 = CIRCLE ( 'NONE', #214, 3.000000000000000000 ) ;
#20 = DATE_AND_TIME ( #70, #166 ) ;
#21 = CARTESIAN_POINT ( 'NONE',  ( 0.0000000000000000000, 0.0000000000000000000, 0.0000000000000000000 ) ) ;
#22 = CC_DESIGN_PERSON_AND_ORGANIZATION_ASSIGNMENT ( #176, #157, ( #194 ) ) ;
#23 = FACE_OUTER_BOUND ( 'NONE', #59, .T. ) ;
#24 = AXIS2_PLACEMENT_3D ( 'NONE', #137, #154, #98 ) ;
#25 = ORIENTED_EDGE ( 'NONE', *, *, #100, .F. ) ;
#26 = EDGE_LOOP ( 'NONE', ( #201 ) ) ;
#27 = PLANE ( 'NONE',  #11 ) ;
#28 = DIRECTION ( 'NONE',  ( -4.275831445896958607E-31, -1.000000000000000000, -1.224646799147353207E-16 ) ) ;
#29 = DIRECTION ( 'NONE',  ( 3.491481338843133355E-15, -1.224646799147353207E-16, 1.000000000000000000 ) ) ;
#30 = CARTESIAN_POINT ( 'NONE',  ( 2.199633243471174140E-13, 2.499999999999992450, 63.00000000000000000 ) ) ;
#31 = CARTESIAN_POINT ( 'NONE',  ( 5.586370142149013368E-14, 2.999999999999992450, 16.00000000000000000 ) ) ;
#32 = APPLICATION_PROTOCOL_DEFINITION ( 'international standard', 'config_control_design', 1994, #174 ) ;
#33 = PERSON_AND_ORGANIZATION_ROLE ( 'design_owner' ) ;
#34 = CC_DESIGN_APPROVAL ( #136, ( #194 ) ) ;
#35 = DIRECTION ( 'NONE',  ( -3.491481338843133355E-15, 1.224646799147353207E-16, -1.000000000000000000 ) ) ;
#36 = CIRCLE ( 'NONE', #40, 2.999999999999994227 ) ;
#37 = EDGE_LOOP ( 'NONE', ( #25 ) ) ;
#38 = CALENDAR_DATE ( 2021, 16, 11 ) ;
#39 = DIRECTION ( 'NONE',  ( -4.275831445896958607E-31, -1.000000000000000000, -1.224646799147353207E-16 ) ) ;
#40 = AXIS2_PLACEMENT_3D ( 'NONE', #200, #35, #165 ) ;
#41 = DIRECTION ( 'NONE',  ( -4.275831445896958607E-31, -1.000000000000000000, -1.224646799147353207E-16 ) ) ;
#42 = CC_DESIGN_PERSON_AND_ORGANIZATION_ASSIGNMENT ( #10, #46, ( #66 ) ) ;
#43 = PLANE ( 'NONE',  #104 ) ;
#44 = VERTEX_POINT ( 'NONE', #31 ) ;
#45 = CARTESIAN_POINT ( 'NONE',  ( 6.982962677686243045E-16, -3.000000000000000000, 0.1999999999999993172 ) ) ;
#46 = PERSON_AND_ORGANIZATION_ROLE ( 'creator' ) ;
#47 = PERSON_AND_ORGANIZATION ( #56, #90 ) ;
#48 = DIRECTION ( 'NONE',  ( 0.0000000000000000000, 0.0000000000000000000, 1.000000000000000000 ) ) ;
#49 = ADVANCED_FACE ( 'NONE', ( #23, #132 ), #91, .T. ) ;
#50 = APPROVAL_DATE_TIME ( #73, #79 ) ;
#51 = SECURITY_CLASSIFICATION_LEVEL ( 'unclassified' ) ;
#52 = ADVANCED_FACE ( 'NONE', ( #171 ), #168, .F. ) ;
#53 = SHAPE_DEFINITION_REPRESENTATION ( #118, #111 ) ;
#54 = EDGE_LOOP ( 'NONE', ( #110 ) ) ;
#55 = EDGE_LOOP ( 'NONE', ( #114 ) ) ;
#56 = PERSON ( 'UNSPECIFIED', 'UNSPECIFIED', 'UNSPECIFIED', ('UNSPECIFIED'), ('UNSPECIFIED'), ('UNSPECIFIED') ) ;
#57 = CLOSED_SHELL ( 'NONE', ( #152, #49, #119, #52 ) ) ;
#58 = CC_DESIGN_PERSON_AND_ORGANIZATION_ASSIGNMENT ( #199, #217, ( #194 ) ) ;
#59 = EDGE_LOOP ( 'NONE', ( #129 ) ) ;
#60 = DIRECTION ( 'NONE',  ( 3.491481338843133355E-15, -1.226656096638776648E-16, 1.000000000000000000 ) ) ;
#61 = CC_DESIGN_PERSON_AND_ORGANIZATION_ASSIGNMENT ( #102, #215, ( #82 ) ) ;
#62 = FACE_OUTER_BOUND ( 'NONE', #184, .T. ) ;
#63 = CC_DESIGN_SECURITY_CLASSIFICATION ( #82, ( #194 ) ) ;
#64 = CARTESIAN_POINT ( 'NONE',  ( 5.586370142149013368E-14, 2.249639673992779296E-32, 16.00000000000000000 ) ) ;
#65 = FACE_OUTER_BOUND ( 'NONE', #187, .T. ) ;
#66 = PRODUCT_DEFINITION ( 'UNKNOWN', '', #194, #183 ) ;
#67 = VERTEX_POINT ( 'NONE', #138 ) ;
#68 = CC_DESIGN_APPROVAL ( #79, ( #66 ) ) ;
#69 = PERSON_AND_ORGANIZATION ( #56, #90 ) ;
#70 = CALENDAR_DATE ( 2021, 16, 11 ) ;
#71 = MANIFOLD_SOLID_BREP ( 'Corps-Déplacer/Copier1[1]', #57 ) ;
#72 = CONICAL_SURFACE ( 'NONE', #206, 3.000000000000000000, 0.7853981633974440602 ) ;
#73 = DATE_AND_TIME ( #177, #77 ) ;
#74 = CONICAL_SURFACE ( 'NONE', #170, 2.500000000000000000, 0.7853981633974479459 ) ;
#75 = EDGE_LOOP ( 'NONE', ( #218 ) ) ;
#76 = AXIS2_PLACEMENT_3D ( 'NONE', #15, #205, #39 ) ;
#77 = LOCAL_TIME ( 16, 44, 52.00000000000000000, #103 ) ;
#78 = DIRECTION ( 'NONE',  ( 0.0000000000000000000, 1.000000000000000000, 0.0000000000000000000 ) ) ;
#79 = APPROVAL ( #159, 'UNSPECIFIED' ) ;
#80 = CARTESIAN_POINT ( 'NONE',  ( 2.199633243471174140E-13, 1.874699728327310515E-32, 63.00000000000000000 ) ) ;
#81 = CARTESIAN_POINT ( 'NONE',  ( 2.182175836776958284E-13, -7.654042494670957804E-15, 62.50000000000000000 ) ) ;
#82 = SECURITY_CLASSIFICATION ( '', '', #51 ) ;
#83 = PRODUCT ( '49686', '49686', '', ( #160 ) ) ;
#84 = CARTESIAN_POINT ( 'NONE',  ( 2.199633243471174140E-13, -7.715274834628325378E-15, 63.00000000000000000 ) ) ;
#85 = FACE_BOUND ( 'NONE', #94, .T. ) ;
#86 = COORDINATED_UNIVERSAL_TIME_OFFSET ( 1, 0, .AHEAD. ) ;
#87 = CIRCLE ( 'NONE', #1, 2.500000000000000000 ) ;
#88 = APPROVAL_STATUS ( 'not_yet_approved' ) ;
#89 = EDGE_CURVE ( 'NONE', #195, #195, #87, .T. ) ;
#90 = ORGANIZATION ( 'UNSPECIFIED', 'UNSPECIFIED', '' ) ;
#91 = CYLINDRICAL_SURFACE ( 'NONE', #92, 2.999999999999997335 ) ;
#92 = AXIS2_PLACEMENT_3D ( 'NONE', #95, #172, #96 ) ;
#93 = ORIENTED_EDGE ( 'NONE', *, *, #100, .T. ) ;
#94 = EDGE_LOOP ( 'NONE', ( #164 ) ) ;
#95 = CARTESIAN_POINT ( 'NONE',  ( 0.0000000000000000000, 0.0000000000000000000, 0.0000000000000000000 ) ) ;
#96 = DIRECTION ( 'NONE',  ( 4.275831445896958607E-31, 1.000000000000000000, 1.224646799147353207E-16 ) ) ;
#97 = AXIS2_PLACEMENT_3D ( 'NONE', #4, #209, #116 ) ;
#98 = DIRECTION ( 'NONE',  ( 4.275831445896958607E-31, 1.000000000000000000, 1.224646799147352961E-16 ) ) ;
#99 = CC_DESIGN_APPROVAL ( #178, ( #82 ) ) ;
#100 = EDGE_CURVE ( 'NONE', #67, #67, #19, .T. ) ;
#101 = DIRECTION ( 'NONE',  ( -3.491481338843133355E-15, 1.224646799147353207E-16, -1.000000000000000000 ) ) ;
#102 = PERSON_AND_ORGANIZATION ( #56, #90 ) ;
#103 = COORDINATED_UNIVERSAL_TIME_OFFSET ( 1, 0, .AHEAD. ) ;
#104 = AXIS2_PLACEMENT_3D ( 'NONE', #155, #115, #41 ) ;
#105 = PERSON_AND_ORGANIZATION ( #56, #90 ) ;
#106 = COORDINATED_UNIVERSAL_TIME_OFFSET ( 1, 0, .AHEAD. ) ;
#107 = ADVANCED_FACE ( 'NONE', ( #208 ), #192, .F. ) ;
#108 =( NAMED_UNIT ( * ) PLANE_ANGLE_UNIT ( ) SI_UNIT ( $, .RADIAN. ) );
#109 = APPROVAL_ROLE ( '' ) ;
#110 = ORIENTED_EDGE ( 'NONE', *, *, #149, .F. ) ;
#111 = ADVANCED_BREP_SHAPE_REPRESENTATION ( '49686', ( #71, #156, #193 ), #130 ) ;
#112 = EDGE_LOOP ( 'NONE', ( #93 ) ) ;
#113 = CC_DESIGN_DATE_AND_TIME_ASSIGNMENT ( #122, #9, ( #66 ) ) ;
#114 = ORIENTED_EDGE ( 'NONE', *, *, #89, .F. ) ;
#115 = DIRECTION ( 'NONE',  ( 3.491481338843133355E-15, -1.224646799147353207E-16, 1.000000000000000000 ) ) ;
#116 = DIRECTION ( 'NONE',  ( 0.0000000000000000000, 1.000000000000000000, 0.0000000000000000000 ) ) ;
#117 = DIRECTION ( 'NONE',  ( -3.491481338843133355E-15, 1.224646799147353207E-16, -1.000000000000000000 ) ) ;
#118 = PRODUCT_DEFINITION_SHAPE ( 'NONE', 'NONE',  #66 ) ;
#119 = ADVANCED_FACE ( 'NONE', ( #16, #85 ), #74, .T. ) ;
#120 = DIRECTION ( 'NONE',  ( -4.172848212839010723E-31, -1.000000000000000000, -1.264902534566421922E-16 ) ) ;
#121 = VERTEX_POINT ( 'NONE', #139 ) ;
#122 = DATE_AND_TIME ( #7, #203 ) ;
#123 = EDGE_CURVE ( 'NONE', #212, #212, #185, .T. ) ;
#124 = APPROVAL_STATUS ( 'not_yet_approved' ) ;
#125 = CIRCLE ( 'NONE', #97, 2.999999999999994227 ) ;
#126 = APPROVAL_ROLE ( '' ) ;
#127 = APPROVAL_DATE_TIME ( #179, #136 ) ;
#128 = UNCERTAINTY_MEASURE_WITH_UNIT (LENGTH_MEASURE( 1.000000000000000082E-05 ), #197, 'distance_accuracy_value', 'NONE');
#129 = ORIENTED_EDGE ( 'NONE', *, *, #5, .F. ) ;
#130 =( GEOMETRIC_REPRESENTATION_CONTEXT ( 3 ) GLOBAL_UNCERTAINTY_ASSIGNED_CONTEXT ( ( #128 ) ) GLOBAL_UNIT_ASSIGNED_CONTEXT ( ( #197, #108, #180 ) ) REPRESENTATION_CONTEXT ( 'NONE', 'WORKASPACE' ) );
#131 = ADVANCED_FACE ( 'NONE', ( #191, #207 ), #72, .T. ) ;
#132 = FACE_OUTER_BOUND ( 'NONE', #112, .T. ) ;
#133 = FACE_OUTER_BOUND ( 'NONE', #145, .T. ) ;
#134 = DIRECTION ( 'NONE',  ( 0.0000000000000000000, 1.000000000000000000, 0.0000000000000000000 ) ) ;
#135 = CYLINDRICAL_SURFACE ( 'NONE', #24, 2.999999999999993339 ) ;
#136 = APPROVAL ( #88, 'UNSPECIFIED' ) ;
#137 = CARTESIAN_POINT ( 'NONE',  ( 0.0000000000000000000, 0.0000000000000000000, 0.0000000000000000000 ) ) ;
#138 = CARTESIAN_POINT ( 'NONE',  ( 2.182175836776958284E-13, 2.999999999999992450, 62.50000000000000000 ) ) ;
#139 = CARTESIAN_POINT ( 'NONE',  ( -2.398394247531772419E-30, -2.800000000000001599, -6.869274141177153566E-16 ) ) ;
#140 = DATE_TIME_ROLE ( 'classification_date' ) ;
#141 = APPLICATION_PROTOCOL_DEFINITION ( 'international standard', 'config_control_design', 1994, #13 ) ;
#142 = APPROVAL_ROLE ( '' ) ;
#143 = CALENDAR_DATE ( 2021, 16, 11 ) ;
#144 = COORDINATED_UNIVERSAL_TIME_OFFSET ( 1, 0, .AHEAD. ) ;
#145 = EDGE_LOOP ( 'NONE', ( #219 ) ) ;
#146 = ADVANCED_FACE ( 'NONE', ( #62 ), #43, .T. ) ;
#147 = ORIENTED_EDGE ( 'NONE', *, *, #123, .F. ) ;
#148 = ORIENTED_EDGE ( 'NONE', *, *, #186, .T. ) ;
#149 = EDGE_CURVE ( 'NONE', #121, #121, #202, .T. ) ;
#150 = DIRECTION ( 'NONE',  ( 0.0000000000000000000, 1.000000000000000000, 0.0000000000000000000 ) ) ;
#151 = DIRECTION ( 'NONE',  ( 4.275831445896958607E-31, 1.000000000000000000, 1.224646799147353207E-16 ) ) ;
#152 = ADVANCED_FACE ( 'NONE', ( #133 ), #27, .F. ) ;
#153 = CARTESIAN_POINT ( 'NONE',  ( -1.199197123765886210E-30, 1.553232092642324812E-32, -3.434637070588576783E-16 ) ) ;
#154 = DIRECTION ( 'NONE',  ( -3.491481338843133355E-15, 1.224646799147353207E-16, -1.000000000000000000 ) ) ;
#155 = CARTESIAN_POINT ( 'NONE',  ( 5.586370142149013368E-14, 2.249639673992779296E-32, 16.00000000000000000 ) ) ;
#156 = MANIFOLD_SOLID_BREP ( 'Corps-Déplacer/Copier1[2]', #188 ) ;
#157 = PERSON_AND_ORGANIZATION_ROLE ( 'design_supplier' ) ;
#158 = VERTEX_POINT ( 'NONE', #213 ) ;
#159 = APPROVAL_STATUS ( 'not_yet_approved' ) ;
#160 = MECHANICAL_CONTEXT ( 'NONE', #174, 'mechanical' ) ;
#161 = APPROVAL_PERSON_ORGANIZATION ( #69, #79, #142 ) ;
#162 = CC_DESIGN_PERSON_AND_ORGANIZATION_ASSIGNMENT ( #105, #33, ( #83 ) ) ;
#163 = DATE_AND_TIME ( #38, #182 ) ;
#164 = ORIENTED_EDGE ( 'NONE', *, *, #89, .T. ) ;
#165 = DIRECTION ( 'NONE',  ( 0.0000000000000000000, 1.000000000000000000, 0.0000000000000000000 ) ) ;
#166 = LOCAL_TIME ( 16, 44, 52.00000000000000000, #198 ) ;
#167 = CARTESIAN_POINT ( 'NONE',  ( 6.982962677686255864E-16, -2.453312193277552248E-17, 0.1999999999999996780 ) ) ;
#168 = PLANE ( 'NONE',  #181 ) ;
#169 = DIRECTION ( 'NONE',  ( -3.491481338843133355E-15, 1.224646799147353207E-16, -1.000000000000000000 ) ) ;
#170 = AXIS2_PLACEMENT_3D ( 'NONE', #84, #101, #150 ) ;
#171 = FACE_OUTER_BOUND ( 'NONE', #55, .T. ) ;
#172 = DIRECTION ( 'NONE',  ( -3.491481338843133355E-15, 1.224646799147353207E-16, -1.000000000000000000 ) ) ;
#173 = ADVANCED_FACE ( 'NONE', ( #65, #6 ), #135, .T. ) ;
#174 = APPLICATION_CONTEXT ( 'configuration controlled 3d designs of mechanical parts and assemblies' ) ;
#175 = AXIS2_PLACEMENT_3D ( 'NONE', #14, #223, #222 ) ;
#176 = PERSON_AND_ORGANIZATION ( #56, #90 ) ;
#177 = CALENDAR_DATE ( 2021, 16, 11 ) ;
#178 = APPROVAL ( #124, 'UNSPECIFIED' ) ;
#179 = DATE_AND_TIME ( #143, #2 ) ;
#180 =( NAMED_UNIT ( * ) SI_UNIT ( $, .STERADIAN. ) SOLID_ANGLE_UNIT ( ) );
#181 = AXIS2_PLACEMENT_3D ( 'NONE', #80, #196, #151 ) ;
#182 = LOCAL_TIME ( 16, 44, 52.00000000000000000, #144 ) ;
#183 = DESIGN_CONTEXT ( 'detailed design', #13, 'design' ) ;
#184 = EDGE_LOOP ( 'NONE', ( #204 ) ) ;
#185 = CIRCLE ( 'NONE', #175, 3.000000000000000000 ) ;
#186 = EDGE_CURVE ( 'NONE', #158, #158, #125, .T. ) ;
#187 = EDGE_LOOP ( 'NONE', ( #148 ) ) ;
#188 = CLOSED_SHELL ( 'NONE', ( #173, #146, #131, #107 ) ) ;
#189 = APPROVAL_PERSON_ORGANIZATION ( #8, #136, #126 ) ;
#190 = DIRECTION ( 'NONE',  ( -4.282846870592448247E-31, -1.000000000000000000, -1.226656096638776648E-16 ) ) ;
#191 = FACE_BOUND ( 'NONE', #75, .T. ) ;
#192 = PLANE ( 'NONE',  #76 ) ;
#193 = AXIS2_PLACEMENT_3D ( 'NONE', #21, #48, #18 ) ;
#194 = PRODUCT_DEFINITION_FORMATION_WITH_SPECIFIED_SOURCE ( 'ANY', '', #83, .NOT_KNOWN. ) ;
#195 = VERTEX_POINT ( 'NONE', #30 ) ;
#196 = DIRECTION ( 'NONE',  ( -3.491481338843133355E-15, 1.224646799147353207E-16, -1.000000000000000000 ) ) ;
#197 =( LENGTH_UNIT ( ) NAMED_UNIT ( * ) SI_UNIT ( .MILLI., .METRE. ) );
#198 = COORDINATED_UNIVERSAL_TIME_OFFSET ( 1, 0, .AHEAD. ) ;
#199 = PERSON_AND_ORGANIZATION ( #56, #90 ) ;
#200 = CARTESIAN_POINT ( 'NONE',  ( 5.586370142149013368E-14, -1.959434878635765131E-15, 16.00000000000000000 ) ) ;
#201 = ORIENTED_EDGE ( 'NONE', *, *, #123, .T. ) ;
#202 = CIRCLE ( 'NONE', #12, 2.800000000000001599 ) ;
#203 = LOCAL_TIME ( 16, 44, 52.00000000000000000, #106 ) ;
#204 = ORIENTED_EDGE ( 'NONE', *, *, #186, .F. ) ;
#205 = DIRECTION ( 'NONE',  ( 3.491481338843133355E-15, -1.224646799147353207E-16, 1.000000000000000000 ) ) ;
#206 = AXIS2_PLACEMENT_3D ( 'NONE', #167, #60, #120 ) ;
#207 = FACE_OUTER_BOUND ( 'NONE', #221, .T. ) ;
#208 = FACE_OUTER_BOUND ( 'NONE', #54, .T. ) ;
#209 = DIRECTION ( 'NONE',  ( -3.491481338843133355E-15, 1.224646799147353207E-16, -1.000000000000000000 ) ) ;
#210 = CC_DESIGN_DATE_AND_TIME_ASSIGNMENT ( #20, #140, ( #82 ) ) ;
#211 = APPROVAL_PERSON_ORGANIZATION ( #47, #178, #109 ) ;
#212 = VERTEX_POINT ( 'NONE', #45 ) ;
#213 = CARTESIAN_POINT ( 'NONE',  ( 5.586370142149013368E-14, 2.999999999999992450, 16.00000000000000000 ) ) ;
#214 = AXIS2_PLACEMENT_3D ( 'NONE', #81, #169, #134 ) ;
#215 = PERSON_AND_ORGANIZATION_ROLE ( 'classification_officer' ) ;
#216 = PRODUCT_RELATED_PRODUCT_CATEGORY ( 'detail', '', ( #83 ) ) ;
#217 = PERSON_AND_ORGANIZATION_ROLE ( 'creator' ) ;
#218 = ORIENTED_EDGE ( 'NONE', *, *, #149, .T. ) ;
#219 = ORIENTED_EDGE ( 'NONE', *, *, #5, .T. ) ;
#220 = APPROVAL_DATE_TIME ( #163, #178 ) ;
#221 = EDGE_LOOP ( 'NONE', ( #147 ) ) ;
#222 = DIRECTION ( 'NONE',  ( -4.172848212839010723E-31, -1.000000000000000000, -1.264902534566421922E-16 ) ) ;
#223 = DIRECTION ( 'NONE',  ( 3.491481338843133355E-15, -1.226656096638776648E-16, 1.000000000000000000 ) ) ;
ENDSEC;
END-ISO-10303-21;
