ISO-10303-21;
HEADER;
FILE_DESCRIPTION (( 'STEP AP203' ),
    '1' );
FILE_NAME ('49685.step',
    '2021-11-16T15:44:52',
    ( '' ),
    ( '' ),
    'SwSTEP 2.0',
    'SolidWorks 2019',
    '' );
FILE_SCHEMA (( 'CONFIG_CONTROL_DESIGN' ));
ENDSEC;

DATA;
#1 = LOCAL_TIME ( 16, 44, 52.00000000000000000, #175 ) ;
#2 = DATE_AND_TIME ( #92, #37 ) ;
#3 = APPROVAL_ROLE ( '' ) ;
#4 = AXIS2_PLACEMENT_3D ( 'NONE', #199, #116, #185 ) ;
#5 = SHAPE_DEFINITION_REPRESENTATION ( #156, #78 ) ;
#6 = CC_DESIGN_PERSON_AND_ORGANIZATION_ASSIGNMENT ( #194, #159, ( #103 ) ) ;
#7 = FACE_OUTER_BOUND ( 'NONE', #109, .T. ) ;
#8 = DIRECTION ( 'NONE',  ( -3.491481338843133355E-15, 1.224646799147353207E-16, -1.000000000000000000 ) ) ;
#9 = LOCAL_TIME ( 16, 44, 52.00000000000000000, #66 ) ;
#10 = CC_DESIGN_DATE_AND_TIME_ASSIGNMENT ( #2, #49, ( #32 ) ) ;
#11 = DIRECTION ( 'NONE',  ( -3.491481338843133355E-15, 1.224646799147353207E-16, -1.000000000000000000 ) ) ;
#12 = CARTESIAN_POINT ( 'NONE',  ( -4.275851038235231709E-31, 1.499766654729047859E-32, -1.224652410616060037E-16 ) ) ;
#13 = VERTEX_POINT ( 'NONE', #154 ) ;
#14 = CIRCLE ( 'NONE', #144, 2.499999999999993783 ) ;
#15 = AXIS2_PLACEMENT_3D ( 'NONE', #122, #152, #100 ) ;
#16 = CC_DESIGN_APPROVAL ( #101, ( #103 ) ) ;
#17 = CC_DESIGN_PERSON_AND_ORGANIZATION_ASSIGNMENT ( #63, #181, ( #103 ) ) ;
#18 = ORIENTED_EDGE ( 'NONE', *, *, #190, .F. ) ;
#19 = DESIGN_CONTEXT ( 'detailed design', #33, 'design' ) ;
#20 = COORDINATED_UNIVERSAL_TIME_OFFSET ( 1, 0, .AHEAD. ) ;
#21 = AXIS2_PLACEMENT_3D ( 'NONE', #43, #28, #186 ) ;
#22 = EDGE_LOOP ( 'NONE', ( #53 ) ) ;
#23 = MECHANICAL_CONTEXT ( 'NONE', #31, 'mechanical' ) ;
#24 = EDGE_LOOP ( 'NONE', ( #180 ) ) ;
#25 = APPROVAL_ROLE ( '' ) ;
#26 = FACE_OUTER_BOUND ( 'NONE', #174, .T. ) ;
#27 = DIRECTION ( 'NONE',  ( -3.491481338843133355E-15, 1.224646799147353207E-16, -1.000000000000000000 ) ) ;
#28 = DIRECTION ( 'NONE',  ( -3.491481338843133355E-15, 1.224646799147353207E-16, -1.000000000000000000 ) ) ;
#29 = DIRECTION ( 'NONE',  ( 3.491481338843133355E-15, -1.224646799147353207E-16, 1.000000000000000000 ) ) ;
#30 = FACE_OUTER_BOUND ( 'NONE', #162, .T. ) ;
#31 = APPLICATION_CONTEXT ( 'configuration controlled 3d designs of mechanical parts and assemblies' ) ;
#32 = PRODUCT_DEFINITION ( 'UNKNOWN', '', #103, #19 ) ;
#33 = APPLICATION_CONTEXT ( 'configuration controlled 3d designs of mechanical parts and assemblies' ) ;
#34 = PERSON_AND_ORGANIZATION ( #95, #91 ) ;
#35 = ORIENTED_EDGE ( 'NONE', *, *, #61, .F. ) ;
#36 = DATE_AND_TIME ( #39, #65 ) ;
#37 = LOCAL_TIME ( 16, 44, 52.00000000000000000, #76 ) ;
#38 = EDGE_LOOP ( 'NONE', ( #35 ) ) ;
#39 = CALENDAR_DATE ( 2021, 16, 11 ) ;
#40 = CALENDAR_DATE ( 2021, 16, 11 ) ;
#41 = CARTESIAN_POINT ( 'NONE',  ( 4.888073874380386697E-14, -1.714505518806294638E-15, 14.00000000000000000 ) ) ;
#42 = CARTESIAN_POINT ( 'NONE',  ( 2.199633243471174140E-13, -7.715274834628325378E-15, 63.00000000000000000 ) ) ;
#43 = CARTESIAN_POINT ( 'NONE',  ( -8.551702076470463418E-31, 2.999533309458095718E-32, -2.449304821232120074E-16 ) ) ;
#44 = FACE_OUTER_BOUND ( 'NONE', #38, .T. ) ;
#45 = LOCAL_TIME ( 16, 44, 52.00000000000000000, #20 ) ;
#46 = PLANE ( 'NONE',  #4 ) ;
#47 = APPROVAL ( #193, 'UNSPECIFIED' ) ;
#48 = CLOSED_SHELL ( 'NONE', ( #126, #133, #139, #73 ) ) ;
#49 = DATE_TIME_ROLE ( 'creation_date' ) ;
#50 = DATE_AND_TIME ( #132, #9 ) ;
#51 = SECURITY_CLASSIFICATION_LEVEL ( 'unclassified' ) ;
#52 = CC_DESIGN_PERSON_AND_ORGANIZATION_ASSIGNMENT ( #111, #163, ( #32 ) ) ;
#53 = ORIENTED_EDGE ( 'NONE', *, *, #178, .T. ) ;
#54 = CALENDAR_DATE ( 2021, 16, 11 ) ;
#55 = CARTESIAN_POINT ( 'NONE',  ( 4.888073874380386697E-14, 2.499999999999992450, 14.00000000000000000 ) ) ;
#56 = DIRECTION ( 'NONE',  ( 0.0000000000000000000, 1.000000000000000000, 0.0000000000000000000 ) ) ;
#57 = CIRCLE ( 'NONE', #136, 2.000000000000000000 ) ;
#58 = PLANE ( 'NONE',  #129 ) ;
#59 = DIRECTION ( 'NONE',  ( 4.275831445896959482E-31, 1.000000000000000000, 1.224646799147353207E-16 ) ) ;
#60 = DIRECTION ( 'NONE',  ( 0.0000000000000000000, 1.000000000000000000, 0.0000000000000000000 ) ) ;
#61 = EDGE_CURVE ( 'NONE', #150, #150, #106, .T. ) ;
#62 = AXIS2_PLACEMENT_3D ( 'NONE', #149, #29, #86 ) ;
#63 = PERSON_AND_ORGANIZATION ( #95, #91 ) ;
#64 = CIRCLE ( 'NONE', #117, 2.499999999999993783 ) ;
#65 = LOCAL_TIME ( 16, 44, 52.00000000000000000, #143 ) ;
#66 = COORDINATED_UNIVERSAL_TIME_OFFSET ( 1, 0, .AHEAD. ) ;
#67 = CARTESIAN_POINT ( 'NONE',  ( 2.182175836776958284E-13, -7.654042494670957804E-15, 62.50000000000000000 ) ) ;
#68 = AXIS2_PLACEMENT_3D ( 'NONE', #67, #11, #166 ) ;
#69 = DIRECTION ( 'NONE',  ( -3.491481338843133355E-15, 1.224646799147353207E-16, -1.000000000000000000 ) ) ;
#70 = DIRECTION ( 'NONE',  ( -3.491481338843133355E-15, 1.224646799147353207E-16, -1.000000000000000000 ) ) ;
#71 = DIRECTION ( 'NONE',  ( 0.0000000000000000000, 1.000000000000000000, 0.0000000000000000000 ) ) ;
#72 = APPROVAL_PERSON_ORGANIZATION ( #89, #47, #80 ) ;
#73 = ADVANCED_FACE ( 'NONE', ( #97 ), #182, .F. ) ;
#74 = DATE_TIME_ROLE ( 'classification_date' ) ;
#75 = ORIENTED_EDGE ( 'NONE', *, *, #167, .F. ) ;
#76 = COORDINATED_UNIVERSAL_TIME_OFFSET ( 1, 0, .AHEAD. ) ;
#77 = ADVANCED_FACE ( 'NONE', ( #44, #169 ), #165, .T. ) ;
#78 = ADVANCED_BREP_SHAPE_REPRESENTATION ( '49685', ( #173, #172, #107 ), #189 ) ;
#79 = EDGE_LOOP ( 'NONE', ( #147 ) ) ;
#80 = APPROVAL_ROLE ( '' ) ;
#81 = APPROVAL_PERSON_ORGANIZATION ( #128, #101, #3 ) ;
#82 = APPROVAL_DATE_TIME ( #36, #155 ) ;
#83 = CARTESIAN_POINT ( 'NONE',  ( 4.888073874380386697E-14, -1.714505518806294638E-15, 14.00000000000000000 ) ) ;
#84 = ADVANCED_FACE ( 'NONE', ( #30 ), #46, .T. ) ;
#85 = FACE_OUTER_BOUND ( 'NONE', #160, .T. ) ;
#86 = DIRECTION ( 'NONE',  ( -4.275831445896958607E-31, -1.000000000000000000, -1.224646799147353207E-16 ) ) ;
#87 = VERTEX_POINT ( 'NONE', #153 ) ;
#88 = CONICAL_SURFACE ( 'NONE', #125, 2.000000000000000000, 0.7853981633974479459 ) ;
#89 = PERSON_AND_ORGANIZATION ( #95, #91 ) ;
#90 = ORIENTED_EDGE ( 'NONE', *, *, #190, .T. ) ;
#91 = ORGANIZATION ( 'UNSPECIFIED', 'UNSPECIFIED', '' ) ;
#92 = CALENDAR_DATE ( 2021, 16, 11 ) ;
#93 = ORIENTED_EDGE ( 'NONE', *, *, #61, .T. ) ;
#94 = PERSON_AND_ORGANIZATION_ROLE ( 'classification_officer' ) ;
#95 = PERSON ( 'UNSPECIFIED', 'UNSPECIFIED', 'UNSPECIFIED', ('UNSPECIFIED'), ('UNSPECIFIED'), ('UNSPECIFIED') ) ;
#96 = CARTESIAN_POINT ( 'NONE',  ( 0.0000000000000000000, 0.0000000000000000000, 0.0000000000000000000 ) ) ;
#97 = FACE_OUTER_BOUND ( 'NONE', #134, .T. ) ;
#98 = ADVANCED_FACE ( 'NONE', ( #26 ), #58, .F. ) ;
#99 = DIRECTION ( 'NONE',  ( -3.491481338843133355E-15, 1.224646799147353207E-16, -1.000000000000000000 ) ) ;
#100 = DIRECTION ( 'NONE',  ( 4.275831445896958607E-31, 1.000000000000000000, 1.224646799147353207E-16 ) ) ;
#101 = APPROVAL ( #110, 'UNSPECIFIED' ) ;
#102 = VERTEX_POINT ( 'NONE', #171 ) ;
#103 = PRODUCT_DEFINITION_FORMATION_WITH_SPECIFIED_SOURCE ( 'ANY', '', #124, .NOT_KNOWN. ) ;
#104 = FACE_OUTER_BOUND ( 'NONE', #113, .T. ) ;
#105 =( NAMED_UNIT ( * ) PLANE_ANGLE_UNIT ( ) SI_UNIT ( $, .RADIAN. ) );
#106 = CIRCLE ( 'NONE', #21, 2.499999999999992450 ) ;
#107 = AXIS2_PLACEMENT_3D ( 'NONE', #96, #191, #145 ) ;
#108 = UNCERTAINTY_MEASURE_WITH_UNIT (LENGTH_MEASURE( 1.000000000000000082E-05 ), #203, 'distance_accuracy_value', 'NONE');
#109 = EDGE_LOOP ( 'NONE', ( #131 ) ) ;
#110 = APPROVAL_STATUS ( 'not_yet_approved' ) ;
#111 = PERSON_AND_ORGANIZATION ( #95, #91 ) ;
#112 = PERSON_AND_ORGANIZATION ( #95, #91 ) ;
#113 = EDGE_LOOP ( 'NONE', ( #18 ) ) ;
#114 = APPROVAL_DATE_TIME ( #177, #101 ) ;
#115 = EDGE_CURVE ( 'NONE', #187, #187, #64, .T. ) ;
#116 = DIRECTION ( 'NONE',  ( 3.491481338843133355E-15, -1.224646799147353207E-16, 1.000000000000000000 ) ) ;
#117 = AXIS2_PLACEMENT_3D ( 'NONE', #83, #70, #71 ) ;
#118 = CC_DESIGN_SECURITY_CLASSIFICATION ( #130, ( #103 ) ) ;
#119 = PLANE ( 'NONE',  #62 ) ;
#120 = FACE_OUTER_BOUND ( 'NONE', #24, .T. ) ;
#121 = FACE_BOUND ( 'NONE', #22, .T. ) ;
#122 = CARTESIAN_POINT ( 'NONE',  ( 2.199633243471174140E-13, 1.499759782661846113E-32, 63.00000000000000000 ) ) ;
#123 = CC_DESIGN_APPROVAL ( #47, ( #32 ) ) ;
#124 = PRODUCT ( '49685', '49685', '', ( #23 ) ) ;
#125 = AXIS2_PLACEMENT_3D ( 'NONE', #197, #8, #56 ) ;
#126 = ADVANCED_FACE ( 'NONE', ( #120 ), #119, .F. ) ;
#127 = PERSON_AND_ORGANIZATION_ROLE ( 'design_owner' ) ;
#128 = PERSON_AND_ORGANIZATION ( #95, #91 ) ;
#129 = AXIS2_PLACEMENT_3D ( 'NONE', #12, #140, #201 ) ;
#130 = SECURITY_CLASSIFICATION ( '', '', #51 ) ;
#131 = ORIENTED_EDGE ( 'NONE', *, *, #115, .F. ) ;
#132 = CALENDAR_DATE ( 2021, 16, 11 ) ;
#133 = ADVANCED_FACE ( 'NONE', ( #7, #85 ), #137, .T. ) ;
#134 = EDGE_LOOP ( 'NONE', ( #168 ) ) ;
#135 = CARTESIAN_POINT ( 'NONE',  ( 0.0000000000000000000, 0.0000000000000000000, 0.0000000000000000000 ) ) ;
#136 = AXIS2_PLACEMENT_3D ( 'NONE', #42, #99, #60 ) ;
#137 = CYLINDRICAL_SURFACE ( 'NONE', #157, 2.499999999999996891 ) ;
#138 = CARTESIAN_POINT ( 'NONE',  ( 2.137876538271900256E-31, 2.499999999999992450, 6.123121766362532060E-17 ) ) ;
#139 = ADVANCED_FACE ( 'NONE', ( #104, #121 ), #88, .T. ) ;
#140 = DIRECTION ( 'NONE',  ( 3.491481338843133355E-15, -1.224646799147353207E-16, 1.000000000000000000 ) ) ;
#141 =( NAMED_UNIT ( * ) SI_UNIT ( $, .STERADIAN. ) SOLID_ANGLE_UNIT ( ) );
#142 = PRODUCT_RELATED_PRODUCT_CATEGORY ( 'detail', '', ( #124 ) ) ;
#143 = COORDINATED_UNIVERSAL_TIME_OFFSET ( 1, 0, .AHEAD. ) ;
#144 = AXIS2_PLACEMENT_3D ( 'NONE', #41, #27, #151 ) ;
#145 = DIRECTION ( 'NONE',  ( 1.000000000000000000, 0.0000000000000000000, 0.0000000000000000000 ) ) ;
#146 = APPROVAL_DATE_TIME ( #50, #47 ) ;
#147 = ORIENTED_EDGE ( 'NONE', *, *, #167, .T. ) ;
#148 = PERSON_AND_ORGANIZATION ( #95, #91 ) ;
#149 = CARTESIAN_POINT ( 'NONE',  ( 4.888073874380386697E-14, 1.874699728327315168E-32, 14.00000000000000000 ) ) ;
#150 = VERTEX_POINT ( 'NONE', #138 ) ;
#151 = DIRECTION ( 'NONE',  ( 0.0000000000000000000, 1.000000000000000000, 0.0000000000000000000 ) ) ;
#152 = DIRECTION ( 'NONE',  ( -3.491481338843133355E-15, 1.224646799147353207E-16, -1.000000000000000000 ) ) ;
#153 = CARTESIAN_POINT ( 'NONE',  ( 2.199633243471174140E-13, 1.999999999999992228, 63.00000000000000000 ) ) ;
#154 = CARTESIAN_POINT ( 'NONE',  ( 2.182175836776958284E-13, 2.499999999999992450, 62.50000000000000000 ) ) ;
#155 = APPROVAL ( #179, 'UNSPECIFIED' ) ;
#156 = PRODUCT_DEFINITION_SHAPE ( 'NONE', 'NONE',  #32 ) ;
#157 = AXIS2_PLACEMENT_3D ( 'NONE', #135, #196, #59 ) ;
#158 = APPROVAL_PERSON_ORGANIZATION ( #112, #155, #25 ) ;
#159 = PERSON_AND_ORGANIZATION_ROLE ( 'design_supplier' ) ;
#160 = EDGE_LOOP ( 'NONE', ( #90 ) ) ;
#161 = APPLICATION_PROTOCOL_DEFINITION ( 'international standard', 'config_control_design', 1994, #31 ) ;
#162 = EDGE_LOOP ( 'NONE', ( #75 ) ) ;
#163 = PERSON_AND_ORGANIZATION_ROLE ( 'creator' ) ;
#164 = DATE_AND_TIME ( #40, #45 ) ;
#165 = CYLINDRICAL_SURFACE ( 'NONE', #188, 2.499999999999992895 ) ;
#166 = DIRECTION ( 'NONE',  ( 0.0000000000000000000, 1.000000000000000000, 0.0000000000000000000 ) ) ;
#167 = EDGE_CURVE ( 'NONE', #102, #102, #14, .T. ) ;
#168 = ORIENTED_EDGE ( 'NONE', *, *, #178, .F. ) ;
#169 = FACE_OUTER_BOUND ( 'NONE', #79, .T. ) ;
#170 = CC_DESIGN_PERSON_AND_ORGANIZATION_ASSIGNMENT ( #34, #94, ( #130 ) ) ;
#171 = CARTESIAN_POINT ( 'NONE',  ( 4.888073874380386697E-14, 2.499999999999992450, 14.00000000000000000 ) ) ;
#172 = MANIFOLD_SOLID_BREP ( 'Corps-Déplacer/Copier1[2]', #198 ) ;
#173 = MANIFOLD_SOLID_BREP ( 'Corps-Déplacer/Copier1[1]', #48 ) ;
#174 = EDGE_LOOP ( 'NONE', ( #93 ) ) ;
#175 = COORDINATED_UNIVERSAL_TIME_OFFSET ( 1, 0, .AHEAD. ) ;
#176 = APPLICATION_PROTOCOL_DEFINITION ( 'international standard', 'config_control_design', 1994, #33 ) ;
#177 = DATE_AND_TIME ( #54, #1 ) ;
#178 = EDGE_CURVE ( 'NONE', #87, #87, #57, .T. ) ;
#179 = APPROVAL_STATUS ( 'not_yet_approved' ) ;
#180 = ORIENTED_EDGE ( 'NONE', *, *, #115, .T. ) ;
#181 = PERSON_AND_ORGANIZATION_ROLE ( 'creator' ) ;
#182 = PLANE ( 'NONE',  #15 ) ;
#183 = CARTESIAN_POINT ( 'NONE',  ( 0.0000000000000000000, 0.0000000000000000000, 0.0000000000000000000 ) ) ;
#184 = CC_DESIGN_PERSON_AND_ORGANIZATION_ASSIGNMENT ( #148, #127, ( #124 ) ) ;
#185 = DIRECTION ( 'NONE',  ( -4.275831445896958607E-31, -1.000000000000000000, -1.224646799147353207E-16 ) ) ;
#186 = DIRECTION ( 'NONE',  ( 4.275831445896958607E-31, 1.000000000000000000, 1.224646799147352961E-16 ) ) ;
#187 = VERTEX_POINT ( 'NONE', #55 ) ;
#188 = AXIS2_PLACEMENT_3D ( 'NONE', #183, #69, #200 ) ;
#189 =( GEOMETRIC_REPRESENTATION_CONTEXT ( 3 ) GLOBAL_UNCERTAINTY_ASSIGNED_CONTEXT ( ( #108 ) ) GLOBAL_UNIT_ASSIGNED_CONTEXT ( ( #203, #105, #141 ) ) REPRESENTATION_CONTEXT ( 'NONE', 'WORKASPACE' ) );
#190 = EDGE_CURVE ( 'NONE', #13, #13, #195, .T. ) ;
#191 = DIRECTION ( 'NONE',  ( 0.0000000000000000000, 0.0000000000000000000, 1.000000000000000000 ) ) ;
#192 = CC_DESIGN_DATE_AND_TIME_ASSIGNMENT ( #164, #74, ( #130 ) ) ;
#193 = APPROVAL_STATUS ( 'not_yet_approved' ) ;
#194 = PERSON_AND_ORGANIZATION ( #95, #91 ) ;
#195 = CIRCLE ( 'NONE', #68, 2.500000000000000000 ) ;
#196 = DIRECTION ( 'NONE',  ( -3.491481338843133355E-15, 1.224646799147353207E-16, -1.000000000000000000 ) ) ;
#197 = CARTESIAN_POINT ( 'NONE',  ( 2.199633243471174140E-13, -7.715274834628325378E-15, 63.00000000000000000 ) ) ;
#198 = CLOSED_SHELL ( 'NONE', ( #98, #77, #84 ) ) ;
#199 = CARTESIAN_POINT ( 'NONE',  ( 4.888073874380386697E-14, 1.874699728327315168E-32, 14.00000000000000000 ) ) ;
#200 = DIRECTION ( 'NONE',  ( 4.275831445896959482E-31, 1.000000000000000000, 1.224646799147353454E-16 ) ) ;
#201 = DIRECTION ( 'NONE',  ( -4.275831445896958607E-31, -1.000000000000000000, -1.224646799147353207E-16 ) ) ;
#202 = CC_DESIGN_APPROVAL ( #155, ( #130 ) ) ;
#203 =( LENGTH_UNIT ( ) NAMED_UNIT ( * ) SI_UNIT ( .MILLI., .METRE. ) );
ENDSEC;
END-ISO-10303-21;
