ISO-10303-21;
HEADER;
FILE_DESCRIPTION (( 'STEP AP203' ),
    '1' );
FILE_NAME ('49684.step',
    '2021-11-16T15:44:51',
    ( '' ),
    ( '' ),
    'SwSTEP 2.0',
    'SolidWorks 2019',
    '' );
FILE_SCHEMA (( 'CONFIG_CONTROL_DESIGN' ));
ENDSEC;

DATA;
#1 = CYLINDRICAL_SURFACE ( 'NONE', #13, 2.000000000000000000 ) ;
#2 = FACE_OUTER_BOUND ( 'NONE', #141, .T. ) ;
#3 = DIRECTION ( 'NONE',  ( -3.491481338843133355E-15, 1.224646799147353207E-16, -1.000000000000000000 ) ) ;
#4 = CALENDAR_DATE ( 2021, 16, 11 ) ;
#5 = PRODUCT_DEFINITION ( 'UNKNOWN', '', #143, #19 ) ;
#6 = PERSON_AND_ORGANIZATION ( #164, #183 ) ;
#7 = PRODUCT_RELATED_PRODUCT_CATEGORY ( 'detail', '', ( #127 ) ) ;
#8 = DIRECTION ( 'NONE',  ( 4.275831445896958607E-31, 1.000000000000000000, 1.224646799147353207E-16 ) ) ;
#9 = AXIS2_PLACEMENT_3D ( 'NONE', #166, #55, #106 ) ;
#10 = EDGE_LOOP ( 'NONE', ( #42 ) ) ;
#11 = EDGE_CURVE ( 'NONE', #202, #202, #172, .T. ) ;
#12 = EDGE_LOOP ( 'NONE', ( #153 ) ) ;
#13 = AXIS2_PLACEMENT_3D ( 'NONE', #72, #188, #156 ) ;
#14 = VERTEX_POINT ( 'NONE', #191 ) ;
#15 = DIRECTION ( 'NONE',  ( 4.275831445896958607E-31, 1.000000000000000000, 1.224646799147353207E-16 ) ) ;
#16 = CARTESIAN_POINT ( 'NONE',  ( 2.199633243471174140E-13, 1.124819836996383900E-32, 63.00000000000000000 ) ) ;
#17 = CARTESIAN_POINT ( 'NONE',  ( 4.189777606611760026E-14, -1.469576158976823947E-15, 12.00000000000000000 ) ) ;
#18 = APPROVAL_ROLE ( '' ) ;
#19 = DESIGN_CONTEXT ( 'detailed design', #180, 'design' ) ;
#20 = APPROVAL_STATUS ( 'not_yet_approved' ) ;
#21 = PERSON_AND_ORGANIZATION_ROLE ( 'classification_officer' ) ;
#22 = CIRCLE ( 'NONE', #84, 2.000000000000003109 ) ;
#23 = DIRECTION ( 'NONE',  ( 0.0000000000000000000, 1.000000000000000000, 0.0000000000000000000 ) ) ;
#24 = CC_DESIGN_APPROVAL ( #195, ( #143 ) ) ;
#25 = EDGE_LOOP ( 'NONE', ( #185 ) ) ;
#26 = SHAPE_DEFINITION_REPRESENTATION ( #142, #146 ) ;
#27 = EDGE_LOOP ( 'NONE', ( #200 ) ) ;
#28 = AXIS2_PLACEMENT_3D ( 'NONE', #193, #57, #73 ) ;
#29 = FACE_OUTER_BOUND ( 'NONE', #10, .T. ) ;
#30 = APPROVAL ( #49, 'UNSPECIFIED' ) ;
#31 = DIRECTION ( 'NONE',  ( -3.491481338843133355E-15, 1.224646799147353207E-16, -1.000000000000000000 ) ) ;
#32 = CC_DESIGN_PERSON_AND_ORGANIZATION_ASSIGNMENT ( #152, #136, ( #143 ) ) ;
#33 = LOCAL_TIME ( 16, 44, 51.00000000000000000, #108 ) ;
#34 = DIRECTION ( 'NONE',  ( 3.491481338843133355E-15, -1.224646799147353207E-16, 1.000000000000000000 ) ) ;
#35 = VERTEX_POINT ( 'NONE', #96 ) ;
#36 = COORDINATED_UNIVERSAL_TIME_OFFSET ( 1, 0, .AHEAD. ) ;
#37 = DATE_AND_TIME ( #97, #148 ) ;
#38 = AXIS2_PLACEMENT_3D ( 'NONE', #17, #3, #157 ) ;
#39 = AXIS2_PLACEMENT_3D ( 'NONE', #16, #90, #15 ) ;
#40 = CALENDAR_DATE ( 2021, 16, 11 ) ;
#41 = CC_DESIGN_DATE_AND_TIME_ASSIGNMENT ( #37, #101, ( #168 ) ) ;
#42 = ORIENTED_EDGE ( 'NONE', *, *, #170, .F. ) ;
#43 = AXIS2_PLACEMENT_3D ( 'NONE', #123, #86, #8 ) ;
#44 = FACE_OUTER_BOUND ( 'NONE', #171, .T. ) ;
#45 = FACE_OUTER_BOUND ( 'NONE', #184, .T. ) ;
#46 = CARTESIAN_POINT ( 'NONE',  ( 2.199633243471174140E-13, 1.499999999999995337, 63.00000000000000000 ) ) ;
#47 = AXIS2_PLACEMENT_3D ( 'NONE', #186, #165, #23 ) ;
#48 = FACE_OUTER_BOUND ( 'NONE', #27, .T. ) ;
#49 = APPROVAL_STATUS ( 'not_yet_approved' ) ;
#50 = DATE_AND_TIME ( #4, #56 ) ;
#51 = AXIS2_PLACEMENT_3D ( 'NONE', #92, #113, #94 ) ;
#52 = CALENDAR_DATE ( 2021, 16, 11 ) ;
#53 = PERSON_AND_ORGANIZATION ( #164, #183 ) ;
#54 = PLANE ( 'NONE',  #9 ) ;
#55 = DIRECTION ( 'NONE',  ( 3.491481338843133355E-15, -1.224646799147353207E-16, 1.000000000000000000 ) ) ;
#56 = LOCAL_TIME ( 16, 44, 51.00000000000000000, #134 ) ;
#57 = DIRECTION ( 'NONE',  ( 3.491481338843133355E-15, -1.224646799147353207E-16, 1.000000000000000000 ) ) ;
#58 = LOCAL_TIME ( 16, 44, 51.00000000000000000, #194 ) ;
#59 =( NAMED_UNIT ( * ) SI_UNIT ( $, .STERADIAN. ) SOLID_ANGLE_UNIT ( ) );
#60 =( LENGTH_UNIT ( ) NAMED_UNIT ( * ) SI_UNIT ( .MILLI., .METRE. ) );
#61 = CARTESIAN_POINT ( 'NONE',  ( -3.206893176760999064E-31, 1.124826709063586057E-32, -9.184907108292236459E-17 ) ) ;
#62 = CARTESIAN_POINT ( 'NONE',  ( 2.182175836776958284E-13, -7.654042494670957804E-15, 62.50000000000000000 ) ) ;
#63 = EDGE_CURVE ( 'NONE', #130, #130, #137, .T. ) ;
#64 = APPLICATION_PROTOCOL_DEFINITION ( 'international standard', 'config_control_design', 1994, #82 ) ;
#65 = DATE_TIME_ROLE ( 'creation_date' ) ;
#66 = DIRECTION ( 'NONE',  ( 0.0000000000000000000, 0.0000000000000000000, 1.000000000000000000 ) ) ;
#67 = AXIS2_PLACEMENT_3D ( 'NONE', #145, #159, #91 ) ;
#68 = DATE_AND_TIME ( #40, #33 ) ;
#69 = ORIENTED_EDGE ( 'NONE', *, *, #63, .T. ) ;
#70 = APPROVAL_DATE_TIME ( #68, #105 ) ;
#71 = ORIENTED_EDGE ( 'NONE', *, *, #121, .T. ) ;
#72 = CARTESIAN_POINT ( 'NONE',  ( 0.0000000000000000000, 0.0000000000000000000, 0.0000000000000000000 ) ) ;
#73 = DIRECTION ( 'NONE',  ( -4.275831445896958607E-31, -1.000000000000000000, -1.224646799147353207E-16 ) ) ;
#74 = CC_DESIGN_APPROVAL ( #105, ( #168 ) ) ;
#75 = CC_DESIGN_DATE_AND_TIME_ASSIGNMENT ( #116, #65, ( #5 ) ) ;
#76 = FACE_OUTER_BOUND ( 'NONE', #12, .T. ) ;
#77 = DIRECTION ( 'NONE',  ( -3.491481338843133355E-15, 1.224646799147353207E-16, -1.000000000000000000 ) ) ;
#78 = ADVANCED_FACE ( 'NONE', ( #138 ), #54, .F. ) ;
#79 = APPROVAL_PERSON_ORGANIZATION ( #115, #195, #18 ) ;
#80 = APPROVAL_ROLE ( '' ) ;
#81 = COORDINATED_UNIVERSAL_TIME_OFFSET ( 1, 0, .AHEAD. ) ;
#82 = APPLICATION_CONTEXT ( 'configuration controlled 3d designs of mechanical parts and assemblies' ) ;
#83 = MECHANICAL_CONTEXT ( 'NONE', #82, 'mechanical' ) ;
#84 = AXIS2_PLACEMENT_3D ( 'NONE', #62, #31, #177 ) ;
#85 = APPROVAL_DATE_TIME ( #50, #30 ) ;
#86 = DIRECTION ( 'NONE',  ( -3.491481338843133355E-15, 1.224646799147353207E-16, -1.000000000000000000 ) ) ;
#87 = ADVANCED_FACE ( 'NONE', ( #48, #203 ), #160, .T. ) ;
#88 = ADVANCED_FACE ( 'NONE', ( #29 ), #174, .T. ) ;
#89 = APPROVAL_PERSON_ORGANIZATION ( #182, #30, #149 ) ;
#90 = DIRECTION ( 'NONE',  ( -3.491481338843133355E-15, 1.224646799147353207E-16, -1.000000000000000000 ) ) ;
#91 = DIRECTION ( 'NONE',  ( 4.275831445896958607E-31, 1.000000000000000000, 1.224646799147352961E-16 ) ) ;
#92 = CARTESIAN_POINT ( 'NONE',  ( 2.199633243471174140E-13, -7.715274834628325378E-15, 63.00000000000000000 ) ) ;
#93 = CC_DESIGN_APPROVAL ( #30, ( #5 ) ) ;
#94 = DIRECTION ( 'NONE',  ( 0.0000000000000000000, 1.000000000000000000, 0.0000000000000000000 ) ) ;
#95 = EDGE_CURVE ( 'NONE', #14, #14, #128, .T. ) ;
#96 = CARTESIAN_POINT ( 'NONE',  ( 2.182175836776958284E-13, 1.999999999999995337, 62.50000000000000000 ) ) ;
#97 = CALENDAR_DATE ( 2021, 16, 11 ) ;
#98 = UNCERTAINTY_MEASURE_WITH_UNIT (LENGTH_MEASURE( 1.000000000000000082E-05 ), #60, 'distance_accuracy_value', 'NONE');
#99 = MANIFOLD_SOLID_BREP ( 'Corps-Déplacer/Copier1[1]', #125 ) ;
#100 = CLOSED_SHELL ( 'NONE', ( #167, #162, #88 ) ) ;
#101 = DATE_TIME_ROLE ( 'classification_date' ) ;
#102 = MANIFOLD_SOLID_BREP ( 'Corps-Déplacer/Copier1[2]', #100 ) ;
#103 = PERSON_AND_ORGANIZATION ( #164, #183 ) ;
#104 =( GEOMETRIC_REPRESENTATION_CONTEXT ( 3 ) GLOBAL_UNCERTAINTY_ASSIGNED_CONTEXT ( ( #98 ) ) GLOBAL_UNIT_ASSIGNED_CONTEXT ( ( #60, #111, #59 ) ) REPRESENTATION_CONTEXT ( 'NONE', 'WORKASPACE' ) );
#105 = APPROVAL ( #20, 'UNSPECIFIED' ) ;
#106 = DIRECTION ( 'NONE',  ( -4.275831445896958607E-31, -1.000000000000000000, -1.224646799147353207E-16 ) ) ;
#107 = AXIS2_PLACEMENT_3D ( 'NONE', #163, #66, #120 ) ;
#108 = COORDINATED_UNIVERSAL_TIME_OFFSET ( 1, 0, .AHEAD. ) ;
#109 = CARTESIAN_POINT ( 'NONE',  ( 2.137876538271899380E-31, 1.999999999999995337, 6.123121766362532060E-17 ) ) ;
#110 = APPROVAL_PERSON_ORGANIZATION ( #161, #105, #80 ) ;
#111 =( NAMED_UNIT ( * ) PLANE_ANGLE_UNIT ( ) SI_UNIT ( $, .RADIAN. ) );
#112 = DIRECTION ( 'NONE',  ( -4.275831445896958607E-31, -1.000000000000000000, -1.224646799147353207E-16 ) ) ;
#113 = DIRECTION ( 'NONE',  ( -3.491481338843133355E-15, 1.224646799147353207E-16, -1.000000000000000000 ) ) ;
#114 = PLANE ( 'NONE',  #39 ) ;
#115 = PERSON_AND_ORGANIZATION ( #164, #183 ) ;
#116 = DATE_AND_TIME ( #150, #122 ) ;
#117 = PERSON_AND_ORGANIZATION ( #164, #183 ) ;
#118 = ADVANCED_FACE ( 'NONE', ( #45 ), #114, .F. ) ;
#119 = PERSON_AND_ORGANIZATION_ROLE ( 'design_supplier' ) ;
#120 = DIRECTION ( 'NONE',  ( 1.000000000000000000, 0.0000000000000000000, 0.0000000000000000000 ) ) ;
#121 = EDGE_CURVE ( 'NONE', #35, #35, #22, .T. ) ;
#122 = LOCAL_TIME ( 16, 44, 51.00000000000000000, #81 ) ;
#123 = CARTESIAN_POINT ( 'NONE',  ( -6.413786353521998128E-31, 2.249653418127172114E-32, -1.836981421658447292E-16 ) ) ;
#124 = EDGE_LOOP ( 'NONE', ( #126 ) ) ;
#125 = CLOSED_SHELL ( 'NONE', ( #78, #140, #87, #118 ) ) ;
#126 = ORIENTED_EDGE ( 'NONE', *, *, #95, .F. ) ;
#127 = PRODUCT ( '49684', '49684', '', ( #83 ) ) ;
#128 = CIRCLE ( 'NONE', #38, 1.999999999999996669 ) ;
#129 = CC_DESIGN_PERSON_AND_ORGANIZATION_ASSIGNMENT ( #103, #21, ( #168 ) ) ;
#130 = VERTEX_POINT ( 'NONE', #109 ) ;
#131 = FACE_OUTER_BOUND ( 'NONE', #124, .T. ) ;
#132 = CC_DESIGN_PERSON_AND_ORGANIZATION_ASSIGNMENT ( #117, #119, ( #143 ) ) ;
#133 = PERSON_AND_ORGANIZATION_ROLE ( 'creator' ) ;
#134 = COORDINATED_UNIVERSAL_TIME_OFFSET ( 1, 0, .AHEAD. ) ;
#135 = CC_DESIGN_PERSON_AND_ORGANIZATION_ASSIGNMENT ( #53, #181, ( #127 ) ) ;
#136 = PERSON_AND_ORGANIZATION_ROLE ( 'creator' ) ;
#137 = CIRCLE ( 'NONE', #43, 1.999999999999995337 ) ;
#138 = FACE_OUTER_BOUND ( 'NONE', #25, .T. ) ;
#139 = EDGE_LOOP ( 'NONE', ( #154 ) ) ;
#140 = ADVANCED_FACE ( 'NONE', ( #131, #44 ), #1, .T. ) ;
#141 = EDGE_LOOP ( 'NONE', ( #69 ) ) ;
#142 = PRODUCT_DEFINITION_SHAPE ( 'NONE', 'NONE',  #5 ) ;
#143 = PRODUCT_DEFINITION_FORMATION_WITH_SPECIFIED_SOURCE ( 'ANY', '', #127, .NOT_KNOWN. ) ;
#144 = DIRECTION ( 'NONE',  ( 0.0000000000000000000, 1.000000000000000000, 0.0000000000000000000 ) ) ;
#145 = CARTESIAN_POINT ( 'NONE',  ( 0.0000000000000000000, 0.0000000000000000000, 0.0000000000000000000 ) ) ;
#146 = ADVANCED_BREP_SHAPE_REPRESENTATION ( '49684', ( #99, #102, #107 ), #104 ) ;
#147 = AXIS2_PLACEMENT_3D ( 'NONE', #189, #77, #144 ) ;
#148 = LOCAL_TIME ( 16, 44, 51.00000000000000000, #36 ) ;
#149 = APPROVAL_ROLE ( '' ) ;
#150 = CALENDAR_DATE ( 2021, 16, 11 ) ;
#151 = APPLICATION_PROTOCOL_DEFINITION ( 'international standard', 'config_control_design', 1994, #180 ) ;
#152 = PERSON_AND_ORGANIZATION ( #164, #183 ) ;
#153 = ORIENTED_EDGE ( 'NONE', *, *, #170, .T. ) ;
#154 = ORIENTED_EDGE ( 'NONE', *, *, #63, .F. ) ;
#155 = ORIENTED_EDGE ( 'NONE', *, *, #11, .T. ) ;
#156 = DIRECTION ( 'NONE',  ( 4.275831445896958607E-31, 1.000000000000000000, 1.224646799147353207E-16 ) ) ;
#157 = DIRECTION ( 'NONE',  ( 0.0000000000000000000, 1.000000000000000000, 0.0000000000000000000 ) ) ;
#158 = CYLINDRICAL_SURFACE ( 'NONE', #67, 1.999999999999995781 ) ;
#159 = DIRECTION ( 'NONE',  ( -3.491481338843133355E-15, 1.224646799147353207E-16, -1.000000000000000000 ) ) ;
#160 = CONICAL_SURFACE ( 'NONE', #51, 1.500000000000003109, 0.7853981633974479459 ) ;
#161 = PERSON_AND_ORGANIZATION ( #164, #183 ) ;
#162 = ADVANCED_FACE ( 'NONE', ( #176, #76 ), #158, .T. ) ;
#163 = CARTESIAN_POINT ( 'NONE',  ( 0.0000000000000000000, 0.0000000000000000000, 0.0000000000000000000 ) ) ;
#164 = PERSON ( 'UNSPECIFIED', 'UNSPECIFIED', 'UNSPECIFIED', ('UNSPECIFIED'), ('UNSPECIFIED'), ('UNSPECIFIED') ) ;
#165 = DIRECTION ( 'NONE',  ( -3.491481338843133355E-15, 1.224646799147353207E-16, -1.000000000000000000 ) ) ;
#166 = CARTESIAN_POINT ( 'NONE',  ( 4.189777606611760026E-14, 1.499759782661853229E-32, 12.00000000000000000 ) ) ;
#167 = ADVANCED_FACE ( 'NONE', ( #2 ), #190, .F. ) ;
#168 = SECURITY_CLASSIFICATION ( '', '', #178 ) ;
#169 = ORIENTED_EDGE ( 'NONE', *, *, #11, .F. ) ;
#170 = EDGE_CURVE ( 'NONE', #175, #175, #199, .T. ) ;
#171 = EDGE_LOOP ( 'NONE', ( #71 ) ) ;
#172 = CIRCLE ( 'NONE', #47, 1.500000000000003109 ) ;
#173 = CARTESIAN_POINT ( 'NONE',  ( 4.189777606611760026E-14, 1.999999999999995337, 12.00000000000000000 ) ) ;
#174 = PLANE ( 'NONE',  #28 ) ;
#175 = VERTEX_POINT ( 'NONE', #173 ) ;
#176 = FACE_OUTER_BOUND ( 'NONE', #139, .T. ) ;
#177 = DIRECTION ( 'NONE',  ( 0.0000000000000000000, 1.000000000000000000, 0.0000000000000000000 ) ) ;
#178 = SECURITY_CLASSIFICATION_LEVEL ( 'unclassified' ) ;
#179 = DATE_AND_TIME ( #52, #58 ) ;
#180 = APPLICATION_CONTEXT ( 'configuration controlled 3d designs of mechanical parts and assemblies' ) ;
#181 = PERSON_AND_ORGANIZATION_ROLE ( 'design_owner' ) ;
#182 = PERSON_AND_ORGANIZATION ( #164, #183 ) ;
#183 = ORGANIZATION ( 'UNSPECIFIED', 'UNSPECIFIED', '' ) ;
#184 = EDGE_LOOP ( 'NONE', ( #169 ) ) ;
#185 = ORIENTED_EDGE ( 'NONE', *, *, #95, .T. ) ;
#186 = CARTESIAN_POINT ( 'NONE',  ( 2.199633243471174140E-13, -7.715274834628325378E-15, 63.00000000000000000 ) ) ;
#187 = AXIS2_PLACEMENT_3D ( 'NONE', #61, #34, #112 ) ;
#188 = DIRECTION ( 'NONE',  ( -3.491481338843133355E-15, 1.224646799147353207E-16, -1.000000000000000000 ) ) ;
#189 = CARTESIAN_POINT ( 'NONE',  ( 4.189777606611760026E-14, -1.469576158976823947E-15, 12.00000000000000000 ) ) ;
#190 = PLANE ( 'NONE',  #187 ) ;
#191 = CARTESIAN_POINT ( 'NONE',  ( 4.189777606611760026E-14, 1.999999999999995337, 12.00000000000000000 ) ) ;
#192 = CC_DESIGN_PERSON_AND_ORGANIZATION_ASSIGNMENT ( #6, #133, ( #5 ) ) ;
#193 = CARTESIAN_POINT ( 'NONE',  ( 4.189777606611760026E-14, 1.499759782661853229E-32, 12.00000000000000000 ) ) ;
#194 = COORDINATED_UNIVERSAL_TIME_OFFSET ( 1, 0, .AHEAD. ) ;
#195 = APPROVAL ( #198, 'UNSPECIFIED' ) ;
#196 = CC_DESIGN_SECURITY_CLASSIFICATION ( #168, ( #143 ) ) ;
#197 = APPROVAL_DATE_TIME ( #179, #195 ) ;
#198 = APPROVAL_STATUS ( 'not_yet_approved' ) ;
#199 = CIRCLE ( 'NONE', #147, 1.999999999999996669 ) ;
#200 = ORIENTED_EDGE ( 'NONE', *, *, #121, .F. ) ;
#201 = EDGE_LOOP ( 'NONE', ( #155 ) ) ;
#202 = VERTEX_POINT ( 'NONE', #46 ) ;
#203 = FACE_BOUND ( 'NONE', #201, .T. ) ;
ENDSEC;
END-ISO-10303-21;
