ISO-10303-21;
HEADER;
FILE_DESCRIPTION (( 'STEP AP203' ),
    '1' );
FILE_NAME ('49683.step',
    '2021-11-16T15:44:51',
    ( '' ),
    ( '' ),
    'SwSTEP 2.0',
    'SolidWorks 2019',
    '' );
FILE_SCHEMA (( 'CONFIG_CONTROL_DESIGN' ));
ENDSEC;

DATA;
#1 = ORIENTED_EDGE ( 'NONE', *, *, #184, .F. ) ;
#2 =( NAMED_UNIT ( * ) SI_UNIT ( $, .STERADIAN. ) SOLID_ANGLE_UNIT ( ) );
#3 = FACE_OUTER_BOUND ( 'NONE', #60, .T. ) ;
#4 = FACE_OUTER_BOUND ( 'NONE', #188, .T. ) ;
#5 = CIRCLE ( 'NONE', #59, 1.499999999999988676 ) ;
#6 = DIRECTION ( 'NONE',  ( 0.0000000000000000000, 1.000000000000000000, 0.0000000000000000000 ) ) ;
#7 = DIRECTION ( 'NONE',  ( 4.275831445896956855E-31, 1.000000000000000000, 1.224646799147352961E-16 ) ) ;
#8 = COORDINATED_UNIVERSAL_TIME_OFFSET ( 1, 0, .AHEAD. ) ;
#9 = APPROVAL ( #173, 'UNSPECIFIED' ) ;
#10 = PERSON_AND_ORGANIZATION_ROLE ( 'design_supplier' ) ;
#11 = PRODUCT ( '49683', '49683', '', ( #136 ) ) ;
#12 = APPROVAL_DATE_TIME ( #140, #126 ) ;
#13 = EDGE_LOOP ( 'NONE', ( #203 ) ) ;
#14 = CC_DESIGN_APPROVAL ( #141, ( #123 ) ) ;
#15 = CARTESIAN_POINT ( 'NONE',  ( 3.491481338843133986E-14, 1.124819836996382532E-32, 10.00000000000000178 ) ) ;
#16 = DIRECTION ( 'NONE',  ( -3.491481338843133355E-15, 1.224646799147353207E-16, -1.000000000000000000 ) ) ;
#17 = PLANE ( 'NONE',  #26 ) ;
#18 =( LENGTH_UNIT ( ) NAMED_UNIT ( * ) SI_UNIT ( .MILLI., .METRE. ) );
#19 = DIRECTION ( 'NONE',  ( 0.0000000000000000000, 1.000000000000000000, 0.0000000000000000000 ) ) ;
#20 = CC_DESIGN_PERSON_AND_ORGANIZATION_ASSIGNMENT ( #172, #39, ( #150 ) ) ;
#21 = PERSON ( 'UNSPECIFIED', 'UNSPECIFIED', 'UNSPECIFIED', ('UNSPECIFIED'), ('UNSPECIFIED'), ('UNSPECIFIED') ) ;
#22 = CARTESIAN_POINT ( 'NONE',  ( 1.326762908760390170E-13, 1.199999999999987521, 37.99999999999999289 ) ) ;
#23 = PRODUCT_DEFINITION_SHAPE ( 'NONE', 'NONE',  #150 ) ;
#24 = DIRECTION ( 'NONE',  ( -3.491481338843133355E-15, 1.224646799147353207E-16, -1.000000000000000000 ) ) ;
#25 = DATE_AND_TIME ( #168, #198 ) ;
#26 = AXIS2_PLACEMENT_3D ( 'NONE', #149, #177, #50 ) ;
#27 = ADVANCED_FACE ( 'NONE', ( #111 ), #191, .T. ) ;
#28 = COORDINATED_UNIVERSAL_TIME_OFFSET ( 1, 0, .AHEAD. ) ;
#29 = PERSON_AND_ORGANIZATION_ROLE ( 'design_owner' ) ;
#30 = CALENDAR_DATE ( 2021, 16, 11 ) ;
#31 = ORGANIZATION ( 'UNSPECIFIED', 'UNSPECIFIED', '' ) ;
#32 = CYLINDRICAL_SURFACE ( 'NONE', #128, 1.499999999999988010 ) ;
#33 = FACE_OUTER_BOUND ( 'NONE', #174, .T. ) ;
#34 = VERTEX_POINT ( 'NONE', #64 ) ;
#35 = DIRECTION ( 'NONE',  ( -3.491481338843133355E-15, 1.224646799147353207E-16, -1.000000000000000000 ) ) ;
#36 = AXIS2_PLACEMENT_3D ( 'NONE', #179, #104, #83 ) ;
#37 = PLANE ( 'NONE',  #161 ) ;
#38 = PERSON_AND_ORGANIZATION ( #21, #31 ) ;
#39 = PERSON_AND_ORGANIZATION_ROLE ( 'creator' ) ;
#40 = COORDINATED_UNIVERSAL_TIME_OFFSET ( 1, 0, .AHEAD. ) ;
#41 = APPROVAL_PERSON_ORGANIZATION ( #38, #141, #137 ) ;
#42 = ORIENTED_EDGE ( 'NONE', *, *, #169, .T. ) ;
#43 = EDGE_LOOP ( 'NONE', ( #127 ) ) ;
#44 = CIRCLE ( 'NONE', #49, 1.499999999999987566 ) ;
#45 = UNCERTAINTY_MEASURE_WITH_UNIT (LENGTH_MEASURE( 1.000000000000000082E-05 ), #18, 'distance_accuracy_value', 'NONE');
#46 = FACE_OUTER_BOUND ( 'NONE', #13, .T. ) ;
#47 = CC_DESIGN_DATE_AND_TIME_ASSIGNMENT ( #25, #199, ( #123 ) ) ;
#48 = ORIENTED_EDGE ( 'NONE', *, *, #189, .T. ) ;
#49 = AXIS2_PLACEMENT_3D ( 'NONE', #62, #35, #7 ) ;
#50 = DIRECTION ( 'NONE',  ( -4.275831445896958607E-31, -1.000000000000000000, -1.224646799147353207E-16 ) ) ;
#51 = DIRECTION ( 'NONE',  ( -3.491481338843133355E-15, 1.224646799147353207E-16, -1.000000000000000000 ) ) ;
#52 = VERTEX_POINT ( 'NONE', #22 ) ;
#53 = CALENDAR_DATE ( 2021, 16, 11 ) ;
#54 = APPROVAL_STATUS ( 'not_yet_approved' ) ;
#55 = CONICAL_SURFACE ( 'NONE', #91, 1.199999999999992184, 0.7853981633974338461 ) ;
#56 = PERSON_AND_ORGANIZATION ( #21, #31 ) ;
#57 = EDGE_LOOP ( 'NONE', ( #48 ) ) ;
#58 = DIRECTION ( 'NONE',  ( -4.275831445896958607E-31, -1.000000000000000000, -1.224646799147353207E-16 ) ) ;
#59 = AXIS2_PLACEMENT_3D ( 'NONE', #165, #24, #6 ) ;
#60 = EDGE_LOOP ( 'NONE', ( #129 ) ) ;
#61 = CC_DESIGN_PERSON_AND_ORGANIZATION_ASSIGNMENT ( #121, #122, ( #123 ) ) ;
#62 = CARTESIAN_POINT ( 'NONE',  ( -4.275834146002908117E-30, 1.499760729731535865E-31, -1.224647572488433065E-15 ) ) ;
#63 = APPROVAL_PERSON_ORGANIZATION ( #135, #126, #183 ) ;
#64 = CARTESIAN_POINT ( 'NONE',  ( 3.491481338843133986E-14, 1.499999999999987566, 10.00000000000000178 ) ) ;
#65 = DIRECTION ( 'NONE',  ( -3.491481338843133355E-15, 1.224646799147353207E-16, -1.000000000000000000 ) ) ;
#66 = CYLINDRICAL_SURFACE ( 'NONE', #36, 1.499999999999990452 ) ;
#67 = DIRECTION ( 'NONE',  ( 0.0000000000000000000, 0.0000000000000000000, 1.000000000000000000 ) ) ;
#68 = CLOSED_SHELL ( 'NONE', ( #92, #146, #196, #86 ) ) ;
#69 = APPROVAL_DATE_TIME ( #120, #141 ) ;
#70 = DATE_TIME_ROLE ( 'creation_date' ) ;
#71 = CALENDAR_DATE ( 2021, 16, 11 ) ;
#72 = CLOSED_SHELL ( 'NONE', ( #181, #88, #27 ) ) ;
#73 = APPROVAL_ROLE ( '' ) ;
#74 = ORIENTED_EDGE ( 'NONE', *, *, #96, .F. ) ;
#75 = CIRCLE ( 'NONE', #110, 1.499999999999988676 ) ;
#76 = EDGE_LOOP ( 'NONE', ( #112 ) ) ;
#77 = DIRECTION ( 'NONE',  ( 4.275831445896958607E-31, 1.000000000000000000, 1.224646799147353207E-16 ) ) ;
#78 = CC_DESIGN_APPROVAL ( #126, ( #150 ) ) ;
#79 = DESIGN_CONTEXT ( 'detailed design', #143, 'design' ) ;
#80 = FACE_BOUND ( 'NONE', #160, .T. ) ;
#81 = FACE_OUTER_BOUND ( 'NONE', #76, .T. ) ;
#82 = CARTESIAN_POINT ( 'NONE',  ( 1.326762908760390170E-13, -4.653657836759941152E-15, 37.99999999999999289 ) ) ;
#83 = DIRECTION ( 'NONE',  ( 4.275831445896958607E-31, 1.000000000000000000, 1.224646799147353454E-16 ) ) ;
#84 = ADVANCED_BREP_SHAPE_REPRESENTATION ( '49683', ( #170, #95, #152 ), #139 ) ;
#85 = CARTESIAN_POINT ( 'NONE',  ( 3.491481338843133986E-14, 1.124819836996382532E-32, 10.00000000000000178 ) ) ;
#86 = ADVANCED_FACE ( 'NONE', ( #46 ), #114, .F. ) ;
#87 = APPLICATION_PROTOCOL_DEFINITION ( 'international standard', 'config_control_design', 1994, #143 ) ;
#88 = ADVANCED_FACE ( 'NONE', ( #144, #115 ), #32, .T. ) ;
#89 = COORDINATED_UNIVERSAL_TIME_OFFSET ( 1, 0, .AHEAD. ) ;
#90 = CARTESIAN_POINT ( 'NONE',  ( 0.0000000000000000000, 0.0000000000000000000, 0.0000000000000000000 ) ) ;
#91 = AXIS2_PLACEMENT_3D ( 'NONE', #82, #164, #192 ) ;
#92 = ADVANCED_FACE ( 'NONE', ( #3 ), #37, .F. ) ;
#93 = EDGE_LOOP ( 'NONE', ( #74 ) ) ;
#94 = LOCAL_TIME ( 16, 44, 51.00000000000000000, #8 ) ;
#95 = MANIFOLD_SOLID_BREP ( 'Corps-Déplacer/Copier1[2]', #72 ) ;
#96 = EDGE_CURVE ( 'NONE', #154, #154, #44, .T. ) ;
#97 = ORIENTED_EDGE ( 'NONE', *, *, #189, .F. ) ;
#98 = CARTESIAN_POINT ( 'NONE',  ( 1.326762908760390170E-13, 8.998558695971017012E-33, 37.99999999999999289 ) ) ;
#99 = CC_DESIGN_SECURITY_CLASSIFICATION ( #123, ( #171 ) ) ;
#100 = DIRECTION ( 'NONE',  ( -4.275831445896958607E-31, -1.000000000000000000, -1.224646799147353207E-16 ) ) ;
#101 = FACE_OUTER_BOUND ( 'NONE', #43, .T. ) ;
#102 = CIRCLE ( 'NONE', #116, 1.499999999999992006 ) ;
#103 = DIRECTION ( 'NONE',  ( 0.0000000000000000000, 1.000000000000000000, 0.0000000000000000000 ) ) ;
#104 = DIRECTION ( 'NONE',  ( -3.491481338843133355E-15, 1.224646799147353207E-16, -1.000000000000000000 ) ) ;
#105 = CC_DESIGN_DATE_AND_TIME_ASSIGNMENT ( #201, #70, ( #150 ) ) ;
#106 = CALENDAR_DATE ( 2021, 16, 11 ) ;
#107 = LOCAL_TIME ( 16, 44, 51.00000000000000000, #28 ) ;
#108 = COORDINATED_UNIVERSAL_TIME_OFFSET ( 1, 0, .AHEAD. ) ;
#109 = CC_DESIGN_PERSON_AND_ORGANIZATION_ASSIGNMENT ( #185, #29, ( #11 ) ) ;
#110 = AXIS2_PLACEMENT_3D ( 'NONE', #178, #65, #103 ) ;
#111 = FACE_OUTER_BOUND ( 'NONE', #175, .T. ) ;
#112 = ORIENTED_EDGE ( 'NONE', *, *, #169, .F. ) ;
#113 = AXIS2_PLACEMENT_3D ( 'NONE', #167, #51, #119 ) ;
#114 = PLANE ( 'NONE',  #180 ) ;
#115 = FACE_OUTER_BOUND ( 'NONE', #57, .T. ) ;
#116 = AXIS2_PLACEMENT_3D ( 'NONE', #195, #153, #19 ) ;
#117 = CARTESIAN_POINT ( 'NONE',  ( 0.0000000000000000000, 0.0000000000000000000, 0.0000000000000000000 ) ) ;
#118 = CC_DESIGN_PERSON_AND_ORGANIZATION_ASSIGNMENT ( #159, #10, ( #171 ) ) ;
#119 = DIRECTION ( 'NONE',  ( 0.0000000000000000000, 1.000000000000000000, 0.0000000000000000000 ) ) ;
#120 = DATE_AND_TIME ( #53, #107 ) ;
#121 = PERSON_AND_ORGANIZATION ( #21, #31 ) ;
#122 = PERSON_AND_ORGANIZATION_ROLE ( 'classification_officer' ) ;
#123 = SECURITY_CLASSIFICATION ( '', '', #186 ) ;
#124 = DIRECTION ( 'NONE',  ( 1.000000000000000000, 0.0000000000000000000, 0.0000000000000000000 ) ) ;
#125 = APPLICATION_PROTOCOL_DEFINITION ( 'international standard', 'config_control_design', 1994, #163 ) ;
#126 = APPROVAL ( #156, 'UNSPECIFIED' ) ;
#127 = ORIENTED_EDGE ( 'NONE', *, *, #96, .T. ) ;
#128 = AXIS2_PLACEMENT_3D ( 'NONE', #117, #132, #166 ) ;
#129 = ORIENTED_EDGE ( 'NONE', *, *, #184, .T. ) ;
#130 = CARTESIAN_POINT ( 'NONE',  ( 3.491481338843133986E-14, 1.499999999999987566, 10.00000000000000178 ) ) ;
#131 = CIRCLE ( 'NONE', #113, 1.199999999999992184 ) ;
#132 = DIRECTION ( 'NONE',  ( -3.491481338843133355E-15, 1.224646799147353207E-16, -1.000000000000000000 ) ) ;
#133 = CARTESIAN_POINT ( 'NONE',  ( -3.634459429118369493E-30, 1.499999999999987566, -1.040950552616331723E-15 ) ) ;
#134 = CC_DESIGN_APPROVAL ( #9, ( #171 ) ) ;
#135 = PERSON_AND_ORGANIZATION ( #21, #31 ) ;
#136 = MECHANICAL_CONTEXT ( 'NONE', #163, 'mechanical' ) ;
#137 = APPROVAL_ROLE ( '' ) ;
#138 = PERSON_AND_ORGANIZATION ( #21, #31 ) ;
#139 =( GEOMETRIC_REPRESENTATION_CONTEXT ( 3 ) GLOBAL_UNCERTAINTY_ASSIGNED_CONTEXT ( ( #45 ) ) GLOBAL_UNIT_ASSIGNED_CONTEXT ( ( #18, #193, #2 ) ) REPRESENTATION_CONTEXT ( 'NONE', 'WORKASPACE' ) );
#140 = DATE_AND_TIME ( #106, #94 ) ;
#141 = APPROVAL ( #54, 'UNSPECIFIED' ) ;
#142 = ORIENTED_EDGE ( 'NONE', *, *, #176, .T. ) ;
#143 = APPLICATION_CONTEXT ( 'configuration controlled 3d designs of mechanical parts and assemblies' ) ;
#144 = FACE_OUTER_BOUND ( 'NONE', #93, .T. ) ;
#145 = APPROVAL_PERSON_ORGANIZATION ( #138, #9, #73 ) ;
#146 = ADVANCED_FACE ( 'NONE', ( #33, #4 ), #66, .T. ) ;
#147 = LOCAL_TIME ( 16, 44, 51.00000000000000000, #108 ) ;
#148 = VERTEX_POINT ( 'NONE', #197 ) ;
#149 = CARTESIAN_POINT ( 'NONE',  ( -2.137917073001454058E-30, 7.498803648657679327E-32, -6.123237862442165323E-16 ) ) ;
#150 = PRODUCT_DEFINITION ( 'UNKNOWN', '', #171, #79 ) ;
#151 = VERTEX_POINT ( 'NONE', #130 ) ;
#152 = AXIS2_PLACEMENT_3D ( 'NONE', #90, #67, #124 ) ;
#153 = DIRECTION ( 'NONE',  ( -3.491481338843133355E-15, 1.224646799147353207E-16, -1.000000000000000000 ) ) ;
#154 = VERTEX_POINT ( 'NONE', #133 ) ;
#155 = CC_DESIGN_PERSON_AND_ORGANIZATION_ASSIGNMENT ( #56, #200, ( #171 ) ) ;
#156 = APPROVAL_STATUS ( 'not_yet_approved' ) ;
#157 = APPROVAL_DATE_TIME ( #158, #9 ) ;
#158 = DATE_AND_TIME ( #30, #187 ) ;
#159 = PERSON_AND_ORGANIZATION ( #21, #31 ) ;
#160 = EDGE_LOOP ( 'NONE', ( #142 ) ) ;
#161 = AXIS2_PLACEMENT_3D ( 'NONE', #85, #194, #100 ) ;
#162 = PRODUCT_RELATED_PRODUCT_CATEGORY ( 'detail', '', ( #11 ) ) ;
#163 = APPLICATION_CONTEXT ( 'configuration controlled 3d designs of mechanical parts and assemblies' ) ;
#164 = DIRECTION ( 'NONE',  ( -3.491481338843133355E-15, 1.224646799147353207E-16, -1.000000000000000000 ) ) ;
#165 = CARTESIAN_POINT ( 'NONE',  ( 3.491481338843133986E-14, -1.224646799147353454E-15, 10.00000000000000178 ) ) ;
#166 = DIRECTION ( 'NONE',  ( 4.275831445896958607E-31, 1.000000000000000000, 1.224646799147353207E-16 ) ) ;
#167 = CARTESIAN_POINT ( 'NONE',  ( 1.326762908760390170E-13, -4.653657836759941152E-15, 37.99999999999999289 ) ) ;
#168 = CALENDAR_DATE ( 2021, 16, 11 ) ;
#169 = EDGE_CURVE ( 'NONE', #148, #148, #102, .T. ) ;
#170 = MANIFOLD_SOLID_BREP ( 'Corps-Déplacer/Copier1[1]', #68 ) ;
#171 = PRODUCT_DEFINITION_FORMATION_WITH_SPECIFIED_SOURCE ( 'ANY', '', #11, .NOT_KNOWN. ) ;
#172 = PERSON_AND_ORGANIZATION ( #21, #31 ) ;
#173 = APPROVAL_STATUS ( 'not_yet_approved' ) ;
#174 = EDGE_LOOP ( 'NONE', ( #1 ) ) ;
#175 = EDGE_LOOP ( 'NONE', ( #97 ) ) ;
#176 = EDGE_CURVE ( 'NONE', #52, #52, #131, .T. ) ;
#177 = DIRECTION ( 'NONE',  ( 3.491481338843133355E-15, -1.224646799147353207E-16, 1.000000000000000000 ) ) ;
#178 = CARTESIAN_POINT ( 'NONE',  ( 3.491481338843133986E-14, -1.224646799147353454E-15, 10.00000000000000178 ) ) ;
#179 = CARTESIAN_POINT ( 'NONE',  ( 0.0000000000000000000, 0.0000000000000000000, 0.0000000000000000000 ) ) ;
#180 = AXIS2_PLACEMENT_3D ( 'NONE', #98, #16, #77 ) ;
#181 = ADVANCED_FACE ( 'NONE', ( #101 ), #17, .F. ) ;
#182 = SHAPE_DEFINITION_REPRESENTATION ( #23, #84 ) ;
#183 = APPROVAL_ROLE ( '' ) ;
#184 = EDGE_CURVE ( 'NONE', #151, #151, #5, .T. ) ;
#185 = PERSON_AND_ORGANIZATION ( #21, #31 ) ;
#186 = SECURITY_CLASSIFICATION_LEVEL ( 'unclassified' ) ;
#187 = LOCAL_TIME ( 16, 44, 51.00000000000000000, #89 ) ;
#188 = EDGE_LOOP ( 'NONE', ( #42 ) ) ;
#189 = EDGE_CURVE ( 'NONE', #34, #34, #75, .T. ) ;
#190 = DIRECTION ( 'NONE',  ( 3.491481338843133355E-15, -1.224646799147353207E-16, 1.000000000000000000 ) ) ;
#191 = PLANE ( 'NONE',  #202 ) ;
#192 = DIRECTION ( 'NONE',  ( 0.0000000000000000000, 1.000000000000000000, 0.0000000000000000000 ) ) ;
#193 =( NAMED_UNIT ( * ) PLANE_ANGLE_UNIT ( ) SI_UNIT ( $, .RADIAN. ) );
#194 = DIRECTION ( 'NONE',  ( 3.491481338843133355E-15, -1.224646799147353207E-16, 1.000000000000000000 ) ) ;
#195 = CARTESIAN_POINT ( 'NONE',  ( 1.316288464743860707E-13, -4.616918432785519503E-15, 37.69999999999998153 ) ) ;
#196 = ADVANCED_FACE ( 'NONE', ( #81, #80 ), #55, .T. ) ;
#197 = CARTESIAN_POINT ( 'NONE',  ( 1.316288464743860707E-13, 1.499999999999987566, 37.69999999999998153 ) ) ;
#198 = LOCAL_TIME ( 16, 44, 51.00000000000000000, #40 ) ;
#199 = DATE_TIME_ROLE ( 'classification_date' ) ;
#200 = PERSON_AND_ORGANIZATION_ROLE ( 'creator' ) ;
#201 = DATE_AND_TIME ( #71, #147 ) ;
#202 = AXIS2_PLACEMENT_3D ( 'NONE', #15, #190, #58 ) ;
#203 = ORIENTED_EDGE ( 'NONE', *, *, #176, .F. ) ;
ENDSEC;
END-ISO-10303-21;
