ISO-10303-21;
HEADER;
FILE_DESCRIPTION (( 'STEP AP203' ),
    '1' );
FILE_NAME ('49329.step',
    '2021-10-08T05:53:56',
    ( '' ),
    ( '' ),
    'SwSTEP 2.0',
    'SolidWorks 2019',
    '' );
FILE_SCHEMA (( 'CONFIG_CONTROL_DESIGN' ));
ENDSEC;

DATA;
#1 = AXIS2_PLACEMENT_3D ( 'NONE', #88, #186, #4 ) ;
#2 = LOCAL_TIME ( 7, 53, 56.00000000000000000, #114 ) ;
#3 = DIRECTION ( 'NONE',  ( 3.491481338843133355E-15, -1.224646799147353207E-16, 1.000000000000000000 ) ) ;
#4 = DIRECTION ( 'NONE',  ( 4.275831445896958607E-31, 1.000000000000000000, 1.224646799147353207E-16 ) ) ;
#5 = AXIS2_PLACEMENT_3D ( 'NONE', #84, #45, #98 ) ;
#6 = COORDINATED_UNIVERSAL_TIME_OFFSET ( 1, 0, .AHEAD. ) ;
#7 = ADVANCED_FACE ( 'NONE', ( #215, #195 ), #12, .T. ) ;
#8 = ORIENTED_EDGE ( 'NONE', *, *, #150, .F. ) ;
#9 = EDGE_CURVE ( 'NONE', #169, #169, #143, .T. ) ;
#10 = EDGE_LOOP ( 'NONE', ( #218 ) ) ;
#11 = CIRCLE ( 'NONE', #32, 0.7499999999999992228 ) ;
#12 = CYLINDRICAL_SURFACE ( 'NONE', #5, 0.4799999999999988720 ) ;
#13 = EDGE_LOOP ( 'NONE', ( #81 ) ) ;
#14 = CC_DESIGN_DATE_AND_TIME_ASSIGNMENT ( #74, #193, ( #208 ) ) ;
#15 = DIRECTION ( 'NONE',  ( -3.491481338843133355E-15, 1.224646799147353207E-16, -1.000000000000000000 ) ) ;
#16 = CARTESIAN_POINT ( 'NONE',  ( 3.142333204958820020E-14, 3.599423478388436637E-33, 9.000000000000000000 ) ) ;
#17 = CIRCLE ( 'NONE', #167, 0.7499999999999966693 ) ;
#18 = FACE_OUTER_BOUND ( 'NONE', #178, .T. ) ;
#19 = APPLICATION_CONTEXT ( 'configuration controlled 3d designs of mechanical parts and assemblies' ) ;
#20 = DIRECTION ( 'NONE',  ( 3.491481338843133355E-15, -1.224646799147353207E-16, 1.000000000000000000 ) ) ;
#21 = CC_DESIGN_PERSON_AND_ORGANIZATION_ASSIGNMENT ( #175, #77, ( #33 ) ) ;
#22 = PERSON_AND_ORGANIZATION ( #221, #184 ) ;
#23 = APPROVAL_DATE_TIME ( #24, #94 ) ;
#24 = DATE_AND_TIME ( #92, #202 ) ;
#25 = PERSON_AND_ORGANIZATION_ROLE ( 'design_supplier' ) ;
#26 = ORIENTED_EDGE ( 'NONE', *, *, #113, .F. ) ;
#27 = ADVANCED_FACE ( 'NONE', ( #135 ), #180, .F. ) ;
#28 = CARTESIAN_POINT ( 'NONE',  ( 3.142333204958820020E-14, 3.599423478388436637E-33, 9.000000000000000000 ) ) ;
#29 = DIRECTION ( 'NONE',  ( 3.491481338843133355E-15, -1.224646799147353207E-16, 1.000000000000000000 ) ) ;
#30 = ADVANCED_FACE ( 'NONE', ( #65, #123 ), #201, .T. ) ;
#31 = DIRECTION ( 'NONE',  ( -3.491481338843133355E-15, 1.224646799147353207E-16, -1.000000000000000000 ) ) ;
#32 = AXIS2_PLACEMENT_3D ( 'NONE', #222, #188, #85 ) ;
#33 = SECURITY_CLASSIFICATION ( '', '', #131 ) ;
#34 = CARTESIAN_POINT ( 'NONE',  ( 1.043952920314096936E-13, 0.7499999999999955591, 29.90000000000000213 ) ) ;
#35 = CC_DESIGN_PERSON_AND_ORGANIZATION_ASSIGNMENT ( #157, #58, ( #208 ) ) ;
#36 = DIRECTION ( 'NONE',  ( -3.491481338843133355E-15, 1.224646799147353207E-16, -1.000000000000000000 ) ) ;
#37 = AXIS2_PLACEMENT_3D ( 'NONE', #105, #153, #127 ) ;
#38 = DIRECTION ( 'NONE',  ( 0.0000000000000000000, 1.000000000000000000, 0.0000000000000000000 ) ) ;
#39 = APPROVAL_ROLE ( '' ) ;
#40 = UNCERTAINTY_MEASURE_WITH_UNIT (LENGTH_MEASURE( 1.000000000000000082E-05 ), #86, 'distance_accuracy_value', 'NONE');
#41 = APPROVAL_ROLE ( '' ) ;
#42 = DIRECTION ( 'NONE',  ( 0.0000000000000000000, 0.0000000000000000000, 1.000000000000000000 ) ) ;
#43 = PRODUCT_RELATED_PRODUCT_CATEGORY ( 'detail', '', ( #91 ) ) ;
#44 = ORIENTED_EDGE ( 'NONE', *, *, #113, .T. ) ;
#45 = DIRECTION ( 'NONE',  ( -3.491481338843133355E-15, 1.224646799147353207E-16, -1.000000000000000000 ) ) ;
#46 = EDGE_LOOP ( 'NONE', ( #95 ) ) ;
#47 = APPROVAL_PERSON_ORGANIZATION ( #144, #94, #41 ) ;
#48 = DIRECTION ( 'NONE',  ( -3.491481338843133355E-15, 1.224646799147353207E-16, -1.000000000000000000 ) ) ;
#49 = VERTEX_POINT ( 'NONE', #54 ) ;
#50 = ADVANCED_BREP_SHAPE_REPRESENTATION ( '49329', ( #119, #115, #173 ), #117 ) ;
#51 = DIRECTION ( 'NONE',  ( 4.012354050806753914E-31, 1.000000000000000000, 1.129377263005737319E-16 ) ) ;
#52 = EDGE_CURVE ( 'NONE', #185, #185, #100, .T. ) ;
#53 = APPROVAL_PERSON_ORGANIZATION ( #129, #191, #155 ) ;
#54 = CARTESIAN_POINT ( 'NONE',  ( 3.305613627917802098E-14, 0.7499999999999954481, 9.467653718043596456 ) ) ;
#55 = CARTESIAN_POINT ( 'NONE',  ( 9.675876916087946791E-16, -3.393840763919731069E-17, 0.2771281292110227557 ) ) ;
#56 = FACE_OUTER_BOUND ( 'NONE', #121, .T. ) ;
#57 = CC_DESIGN_SECURITY_CLASSIFICATION ( #33, ( #197 ) ) ;
#58 = PERSON_AND_ORGANIZATION_ROLE ( 'creator' ) ;
#59 = PERSON_AND_ORGANIZATION_ROLE ( 'design_owner' ) ;
#60 = CC_DESIGN_DATE_AND_TIME_ASSIGNMENT ( #90, #146, ( #33 ) ) ;
#61 = DATE_AND_TIME ( #206, #160 ) ;
#62 = MECHANICAL_CONTEXT ( 'NONE', #200, 'mechanical' ) ;
#63 = CIRCLE ( 'NONE', #37, 0.6499999999999990230 ) ;
#64 = CC_DESIGN_PERSON_AND_ORGANIZATION_ASSIGNMENT ( #22, #142, ( #197 ) ) ;
#65 = FACE_OUTER_BOUND ( 'NONE', #219, .T. ) ;
#66 = CONICAL_SURFACE ( 'NONE', #116, 0.7499999999999966693, 0.5235987755982944858 ) ;
#67 = VERTEX_POINT ( 'NONE', #34 ) ;
#68 = ADVANCED_FACE ( 'NONE', ( #102 ), #203, .T. ) ;
#69 = AXIS2_PLACEMENT_3D ( 'NONE', #83, #48, #82 ) ;
#70 = DIRECTION ( 'NONE',  ( -4.012354050806753914E-31, -1.000000000000000000, -1.129377263005737319E-16 ) ) ;
#71 = DIRECTION ( 'NONE',  ( -4.275831445896958607E-31, -1.000000000000000000, -1.224646799147353207E-16 ) ) ;
#72 = EDGE_CURVE ( 'NONE', #67, #67, #11, .T. ) ;
#73 = DATE_AND_TIME ( #176, #2 ) ;
#74 = DATE_AND_TIME ( #109, #145 ) ;
#75 = PERSON_AND_ORGANIZATION ( #221, #184 ) ;
#76 =( NAMED_UNIT ( * ) SI_UNIT ( $, .STERADIAN. ) SOLID_ANGLE_UNIT ( ) );
#77 = PERSON_AND_ORGANIZATION_ROLE ( 'classification_officer' ) ;
#78 = CC_DESIGN_APPROVAL ( #94, ( #208 ) ) ;
#79 = EDGE_LOOP ( 'NONE', ( #182 ) ) ;
#80 = AXIS2_PLACEMENT_3D ( 'NONE', #28, #29, #162 ) ;
#81 = ORIENTED_EDGE ( 'NONE', *, *, #52, .F. ) ;
#82 = DIRECTION ( 'NONE',  ( 0.0000000000000000000, 1.000000000000000000, 0.0000000000000000000 ) ) ;
#83 = CARTESIAN_POINT ( 'NONE',  ( 3.142333204958820020E-14, -1.102182119232617714E-15, 9.000000000000000000 ) ) ;
#84 = CARTESIAN_POINT ( 'NONE',  ( 0.0000000000000000000, 0.0000000000000000000, 0.0000000000000000000 ) ) ;
#85 = DIRECTION ( 'NONE',  ( 0.0000000000000000000, 1.000000000000000000, 0.0000000000000000000 ) ) ;
#86 =( LENGTH_UNIT ( ) NAMED_UNIT ( * ) SI_UNIT ( .MILLI., .METRE. ) );
#87 = CARTESIAN_POINT ( 'NONE',  ( 1.047444401652940007E-13, 4.874219293650974277E-33, 30.00000000000000000 ) ) ;
#88 = CARTESIAN_POINT ( 'NONE',  ( 0.0000000000000000000, 0.0000000000000000000, 0.0000000000000000000 ) ) ;
#89 = COORDINATED_UNIVERSAL_TIME_OFFSET ( 1, 0, .AHEAD. ) ;
#90 = DATE_AND_TIME ( #106, #104 ) ;
#91 = PRODUCT ( '49329', '49329', '', ( #62 ) ) ;
#92 = CALENDAR_DATE ( 2021, 8, 10 ) ;
#93 = CIRCLE ( 'NONE', #177, 0.4799999999999984834 ) ;
#94 = APPROVAL ( #130, 'UNSPECIFIED' ) ;
#95 = ORIENTED_EDGE ( 'NONE', *, *, #9, .T. ) ;
#96 = AXIS2_PLACEMENT_3D ( 'NONE', #199, #3, #70 ) ;
#97 = EDGE_LOOP ( 'NONE', ( #118 ) ) ;
#98 = DIRECTION ( 'NONE',  ( 4.275831445896959482E-31, 1.000000000000000000, 1.224646799147353454E-16 ) ) ;
#99 = CYLINDRICAL_SURFACE ( 'NONE', #1, 0.7499999999999980016 ) ;
#100 = CIRCLE ( 'NONE', #110, 0.4799999999999993161 ) ;
#101 = DIRECTION ( 'NONE',  ( 4.275831445896958607E-31, 1.000000000000000000, 1.224646799147353207E-16 ) ) ;
#102 = FACE_OUTER_BOUND ( 'NONE', #13, .T. ) ;
#103 = DIRECTION ( 'NONE',  ( 3.491481338843133355E-15, -1.224646799147353207E-16, 1.000000000000000000 ) ) ;
#104 = LOCAL_TIME ( 7, 53, 56.00000000000000000, #6 ) ;
#105 = CARTESIAN_POINT ( 'NONE',  ( 1.047444401652940007E-13, -3.673940397442059178E-15, 30.00000000000000000 ) ) ;
#106 = CALENDAR_DATE ( 2021, 8, 10 ) ;
#107 = ADVANCED_FACE ( 'NONE', ( #138 ), #204, .F. ) ;
#108 = PRODUCT_DEFINITION_SHAPE ( 'NONE', 'NONE',  #208 ) ;
#109 = CALENDAR_DATE ( 2021, 8, 10 ) ;
#110 = AXIS2_PLACEMENT_3D ( 'NONE', #223, #165, #128 ) ;
#111 = APPROVAL_DATE_TIME ( #73, #216 ) ;
#112 = APPLICATION_PROTOCOL_DEFINITION ( 'international standard', 'config_control_design', 1994, #200 ) ;
#113 = EDGE_CURVE ( 'NONE', #49, #49, #17, .T. ) ;
#114 = COORDINATED_UNIVERSAL_TIME_OFFSET ( 1, 0, .AHEAD. ) ;
#115 = MANIFOLD_SOLID_BREP ( 'Corps-Déplacer/Copier1[2]', #172 ) ;
#116 = AXIS2_PLACEMENT_3D ( 'NONE', #154, #103, #166 ) ;
#117 =( GEOMETRIC_REPRESENTATION_CONTEXT ( 3 ) GLOBAL_UNCERTAINTY_ASSIGNED_CONTEXT ( ( #40 ) ) GLOBAL_UNIT_ASSIGNED_CONTEXT ( ( #86, #126, #76 ) ) REPRESENTATION_CONTEXT ( 'NONE', 'WORKASPACE' ) );
#118 = ORIENTED_EDGE ( 'NONE', *, *, #9, .F. ) ;
#119 = MANIFOLD_SOLID_BREP ( 'Corps-Déplacer/Copier1[1]', #151 ) ;
#120 = ADVANCED_FACE ( 'NONE', ( #187 ), #207, .T. ) ;
#121 = EDGE_LOOP ( 'NONE', ( #196 ) ) ;
#122 = EDGE_LOOP ( 'NONE', ( #8 ) ) ;
#123 = FACE_BOUND ( 'NONE', #79, .T. ) ;
#124 = VERTEX_POINT ( 'NONE', #183 ) ;
#125 = CARTESIAN_POINT ( 'NONE',  ( 3.305613627917802098E-14, -1.159453182123762805E-15, 9.467653718043596456 ) ) ;
#126 =( NAMED_UNIT ( * ) PLANE_ANGLE_UNIT ( ) SI_UNIT ( $, .RADIAN. ) );
#127 = DIRECTION ( 'NONE',  ( 0.0000000000000000000, 1.000000000000000000, 0.0000000000000000000 ) ) ;
#128 = DIRECTION ( 'NONE',  ( 0.0000000000000000000, 1.000000000000000000, 0.0000000000000000000 ) ) ;
#129 = PERSON_AND_ORGANIZATION ( #221, #184 ) ;
#130 = APPROVAL_STATUS ( 'not_yet_approved' ) ;
#131 = SECURITY_CLASSIFICATION_LEVEL ( 'unclassified' ) ;
#132 = DIRECTION ( 'NONE',  ( 1.000000000000000000, 0.0000000000000000000, 0.0000000000000000000 ) ) ;
#133 = AXIS2_PLACEMENT_3D ( 'NONE', #152, #36, #139 ) ;
#134 = EDGE_LOOP ( 'NONE', ( #148 ) ) ;
#135 = FACE_OUTER_BOUND ( 'NONE', #46, .T. ) ;
#136 = CC_DESIGN_APPROVAL ( #191, ( #33 ) ) ;
#137 = CC_DESIGN_PERSON_AND_ORGANIZATION_ASSIGNMENT ( #194, #59, ( #91 ) ) ;
#138 = FACE_OUTER_BOUND ( 'NONE', #134, .T. ) ;
#139 = DIRECTION ( 'NONE',  ( 0.0000000000000000000, 1.000000000000000000, 0.0000000000000000000 ) ) ;
#140 = DIRECTION ( 'NONE',  ( -3.491481338843133355E-15, 1.224646799147353207E-16, -1.000000000000000000 ) ) ;
#141 = FACE_OUTER_BOUND ( 'NONE', #179, .T. ) ;
#142 = PERSON_AND_ORGANIZATION_ROLE ( 'creator' ) ;
#143 = CIRCLE ( 'NONE', #69, 0.4799999999999993161 ) ;
#144 = PERSON_AND_ORGANIZATION ( #221, #184 ) ;
#145 = LOCAL_TIME ( 7, 53, 56.00000000000000000, #210 ) ;
#146 = DATE_TIME_ROLE ( 'classification_date' ) ;
#147 = CC_DESIGN_PERSON_AND_ORGANIZATION_ASSIGNMENT ( #75, #25, ( #197 ) ) ;
#148 = ORIENTED_EDGE ( 'NONE', *, *, #158, .F. ) ;
#149 = ORIENTED_EDGE ( 'NONE', *, *, #72, .F. ) ;
#150 = EDGE_CURVE ( 'NONE', #124, #124, #93, .T. ) ;
#151 = CLOSED_SHELL ( 'NONE', ( #27, #170, #214, #30, #107 ) ) ;
#152 = CARTESIAN_POINT ( 'NONE',  ( 1.047444401652940007E-13, -3.673940397442059178E-15, 30.00000000000000000 ) ) ;
#153 = DIRECTION ( 'NONE',  ( -3.491481338843133355E-15, 1.224646799147353207E-16, -1.000000000000000000 ) ) ;
#154 = CARTESIAN_POINT ( 'NONE',  ( 3.305613627917802098E-14, -1.159453182123762805E-15, 9.467653718043596456 ) ) ;
#155 = APPROVAL_ROLE ( '' ) ;
#156 = CC_DESIGN_APPROVAL ( #216, ( #197 ) ) ;
#157 = PERSON_AND_ORGANIZATION ( #221, #184 ) ;
#158 = EDGE_CURVE ( 'NONE', #163, #163, #63, .T. ) ;
#159 = AXIS2_PLACEMENT_3D ( 'NONE', #87, #140, #101 ) ;
#160 = LOCAL_TIME ( 7, 53, 56.00000000000000000, #89 ) ;
#161 = EDGE_LOOP ( 'NONE', ( #217 ) ) ;
#162 = DIRECTION ( 'NONE',  ( -4.275831445896958607E-31, -1.000000000000000000, -1.224646799147353207E-16 ) ) ;
#163 = VERTEX_POINT ( 'NONE', #164 ) ;
#164 = CARTESIAN_POINT ( 'NONE',  ( 1.047444401652940007E-13, 0.6499999999999953593, 30.00000000000000000 ) ) ;
#165 = DIRECTION ( 'NONE',  ( -3.491481338843133355E-15, 1.224646799147353207E-16, -1.000000000000000000 ) ) ;
#166 = DIRECTION ( 'NONE',  ( 0.0000000000000000000, -1.000000000000000000, 0.0000000000000000000 ) ) ;
#167 = AXIS2_PLACEMENT_3D ( 'NONE', #125, #31, #38 ) ;
#168 = DESIGN_CONTEXT ( 'detailed design', #19, 'design' ) ;
#169 = VERTEX_POINT ( 'NONE', #205 ) ;
#170 = ADVANCED_FACE ( 'NONE', ( #198, #141 ), #66, .T. ) ;
#171 = APPROVAL_STATUS ( 'not_yet_approved' ) ;
#172 = CLOSED_SHELL ( 'NONE', ( #120, #7, #68 ) ) ;
#173 = AXIS2_PLACEMENT_3D ( 'NONE', #174, #42, #132 ) ;
#174 = CARTESIAN_POINT ( 'NONE',  ( 0.0000000000000000000, 0.0000000000000000000, 0.0000000000000000000 ) ) ;
#175 = PERSON_AND_ORGANIZATION ( #221, #184 ) ;
#176 = CALENDAR_DATE ( 2021, 8, 10 ) ;
#177 = AXIS2_PLACEMENT_3D ( 'NONE', #55, #15, #51 ) ;
#178 = EDGE_LOOP ( 'NONE', ( #26 ) ) ;
#179 = EDGE_LOOP ( 'NONE', ( #44 ) ) ;
#180 = PLANE ( 'NONE',  #80 ) ;
#181 = APPROVAL_PERSON_ORGANIZATION ( #211, #216, #39 ) ;
#182 = ORIENTED_EDGE ( 'NONE', *, *, #158, .T. ) ;
#183 = CARTESIAN_POINT ( 'NONE',  ( 9.675876916087948763E-16, 0.4799999999999984279, 0.2771281292110228112 ) ) ;
#184 = ORGANIZATION ( 'UNSPECIFIED', 'UNSPECIFIED', '' ) ;
#185 = VERTEX_POINT ( 'NONE', #220 ) ;
#186 = DIRECTION ( 'NONE',  ( -3.491481338843133355E-15, 1.224646799147353207E-16, -1.000000000000000000 ) ) ;
#187 = FACE_OUTER_BOUND ( 'NONE', #161, .T. ) ;
#188 = DIRECTION ( 'NONE',  ( -3.491481338843133355E-15, 1.224646799147353207E-16, -1.000000000000000000 ) ) ;
#189 = APPLICATION_PROTOCOL_DEFINITION ( 'international standard', 'config_control_design', 1994, #19 ) ;
#190 = COORDINATED_UNIVERSAL_TIME_OFFSET ( 1, 0, .AHEAD. ) ;
#191 = APPROVAL ( #192, 'UNSPECIFIED' ) ;
#192 = APPROVAL_STATUS ( 'not_yet_approved' ) ;
#193 = DATE_TIME_ROLE ( 'creation_date' ) ;
#194 = PERSON_AND_ORGANIZATION ( #221, #184 ) ;
#195 = FACE_OUTER_BOUND ( 'NONE', #10, .T. ) ;
#196 = ORIENTED_EDGE ( 'NONE', *, *, #72, .T. ) ;
#197 = PRODUCT_DEFINITION_FORMATION_WITH_SPECIFIED_SOURCE ( 'ANY', '', #91, .NOT_KNOWN. ) ;
#198 = FACE_BOUND ( 'NONE', #97, .T. ) ;
#199 = CARTESIAN_POINT ( 'NONE',  ( 9.675876916087946791E-16, -3.393840763919731069E-17, 0.2771281292110227557 ) ) ;
#200 = APPLICATION_CONTEXT ( 'configuration controlled 3d designs of mechanical parts and assemblies' ) ;
#201 = CONICAL_SURFACE ( 'NONE', #133, 0.6499999999999990230, 0.7853981633974700394 ) ;
#202 = LOCAL_TIME ( 7, 53, 56.00000000000000000, #190 ) ;
#203 = PLANE ( 'NONE',  #212 ) ;
#204 = PLANE ( 'NONE',  #159 ) ;
#205 = CARTESIAN_POINT ( 'NONE',  ( 3.142333204958820020E-14, 0.4799999999999982059, 9.000000000000000000 ) ) ;
#206 = CALENDAR_DATE ( 2021, 8, 10 ) ;
#207 = CONICAL_SURFACE ( 'NONE', #96, 0.4799999999999984834, 1.047197551196592746 ) ;
#208 = PRODUCT_DEFINITION ( 'UNKNOWN', '', #197, #168 ) ;
#209 = SHAPE_DEFINITION_REPRESENTATION ( #108, #50 ) ;
#210 = COORDINATED_UNIVERSAL_TIME_OFFSET ( 1, 0, .AHEAD. ) ;
#211 = PERSON_AND_ORGANIZATION ( #221, #184 ) ;
#212 = AXIS2_PLACEMENT_3D ( 'NONE', #16, #20, #71 ) ;
#213 = APPROVAL_DATE_TIME ( #61, #191 ) ;
#214 = ADVANCED_FACE ( 'NONE', ( #18, #56 ), #99, .T. ) ;
#215 = FACE_OUTER_BOUND ( 'NONE', #122, .T. ) ;
#216 = APPROVAL ( #171, 'UNSPECIFIED' ) ;
#217 = ORIENTED_EDGE ( 'NONE', *, *, #150, .T. ) ;
#218 = ORIENTED_EDGE ( 'NONE', *, *, #52, .T. ) ;
#219 = EDGE_LOOP ( 'NONE', ( #149 ) ) ;
#220 = CARTESIAN_POINT ( 'NONE',  ( 3.142333204958820020E-14, 0.4799999999999982059, 9.000000000000000000 ) ) ;
#221 = PERSON ( 'UNSPECIFIED', 'UNSPECIFIED', 'UNSPECIFIED', ('UNSPECIFIED'), ('UNSPECIFIED'), ('UNSPECIFIED') ) ;
#222 = CARTESIAN_POINT ( 'NONE',  ( 1.043952920314096936E-13, -3.661693929450586610E-15, 29.90000000000000213 ) ) ;
#223 = CARTESIAN_POINT ( 'NONE',  ( 3.142333204958820020E-14, -1.102182119232617714E-15, 9.000000000000000000 ) ) ;
ENDSEC;
END-ISO-10303-21;
