ISO-10303-21;
HEADER;
FILE_DESCRIPTION (( 'STEP AP203' ),
    '1' );
FILE_NAME ('49286.step',
    '2021-11-15T13:03:59',
    ( '' ),
    ( '' ),
    'SwSTEP 2.0',
    'SolidWorks 2019',
    '' );
FILE_SCHEMA (( 'CONFIG_CONTROL_DESIGN' ));
ENDSEC;

DATA;
#1 = LOCAL_TIME ( 14, 3, 59.00000000000000000, #108 ) ;
#2 = EDGE_LOOP ( 'NONE', ( #170 ) ) ;
#3 = PERSON_AND_ORGANIZATION ( #126, #219 ) ;
#4 = CC_DESIGN_APPROVAL ( #188, ( #162 ) ) ;
#5 = EDGE_CURVE ( 'NONE', #49, #49, #140, .T. ) ;
#6 = ORIENTED_EDGE ( 'NONE', *, *, #67, .T. ) ;
#7 = FACE_OUTER_BOUND ( 'NONE', #236, .T. ) ;
#8 = DIRECTION ( 'NONE',  ( 3.491481338843133355E-15, -1.224913660227414450E-16, 1.000000000000000000 ) ) ;
#9 = CARTESIAN_POINT ( 'NONE',  ( 2.793185071074506684E-13, -9.799309281819314808E-15, 80.00000000000000000 ) ) ;
#10 = APPROVAL_STATUS ( 'not_yet_approved' ) ;
#11 = PLANE ( 'NONE',  #14 ) ;
#12 = PERSON_AND_ORGANIZATION_ROLE ( 'creator' ) ;
#13 = APPROVAL_ROLE ( '' ) ;
#14 = AXIS2_PLACEMENT_3D ( 'NONE', #111, #177, #39 ) ;
#15 = EDGE_LOOP ( 'NONE', ( #114 ) ) ;
#16 = CYLINDRICAL_SURFACE ( 'NONE', #208, 9.800000000000004263 ) ;
#17 = EDGE_LOOP ( 'NONE', ( #90 ) ) ;
#18 = AXIS2_PLACEMENT_3D ( 'NONE', #35, #24, #215 ) ;
#19 = APPROVAL_STATUS ( 'not_yet_approved' ) ;
#20 = DIRECTION ( 'NONE',  ( -3.491481338843133355E-15, 1.224913660227414450E-16, -1.000000000000000000 ) ) ;
#21 = ORIENTED_EDGE ( 'NONE', *, *, #42, .T. ) ;
#22 = EDGE_CURVE ( 'NONE', #106, #106, #109, .T. ) ;
#23 = CIRCLE ( 'NONE', #124, 10.00000000000000000 ) ;
#24 = DIRECTION ( 'NONE',  ( 3.491481338843133355E-15, -1.224913660227414450E-16, 1.000000000000000000 ) ) ;
#25 = EDGE_LOOP ( 'NONE', ( #190 ) ) ;
#26 = CARTESIAN_POINT ( 'NONE',  ( 4.504010927107641902E-13, -1.579794370900085620E-14, 129.0000000000000000 ) ) ;
#27 = CARTESIAN_POINT ( 'NONE',  ( 4.538925740496074119E-13, 8.999999999999984013, 130.0000000000000000 ) ) ;
#28 = DIRECTION ( 'NONE',  ( -3.491481338843133355E-15, 1.224646799147353207E-16, -1.000000000000000000 ) ) ;
#29 =( NAMED_UNIT ( * ) SI_UNIT ( $, .STERADIAN. ) SOLID_ANGLE_UNIT ( ) );
#30 = APPROVAL ( #19, 'UNSPECIFIED' ) ;
#31 = CARTESIAN_POINT ( 'NONE',  ( 6.982962677686266711E-14, -9.800000000000006040, 20.00000000000000000 ) ) ;
#32 = ORIENTED_EDGE ( 'NONE', *, *, #51, .T. ) ;
#33 = AXIS2_PLACEMENT_3D ( 'NONE', #153, #199, #59 ) ;
#34 = ORIENTED_EDGE ( 'NONE', *, *, #5, .F. ) ;
#35 = CARTESIAN_POINT ( 'NONE',  ( 2.793185071074506684E-13, -9.799309281819314808E-15, 80.00000000000000000 ) ) ;
#36 = CIRCLE ( 'NONE', #186, 9.000000000000000000 ) ;
#37 = EDGE_LOOP ( 'NONE', ( #92 ) ) ;
#38 = CARTESIAN_POINT ( 'NONE',  ( 4.504010927107641902E-13, -1.579794370900085620E-14, 129.0000000000000000 ) ) ;
#39 = DIRECTION ( 'NONE',  ( 4.275831445896958607E-31, 1.000000000000000000, 1.224646799147353207E-16 ) ) ;
#40 = EDGE_LOOP ( 'NONE', ( #167 ) ) ;
#41 =( LENGTH_UNIT ( ) NAMED_UNIT ( * ) SI_UNIT ( .MILLI., .METRE. ) );
#42 = EDGE_CURVE ( 'NONE', #150, #150, #36, .T. ) ;
#43 = MECHANICAL_CONTEXT ( 'NONE', #240, 'mechanical' ) ;
#44 = AXIS2_PLACEMENT_3D ( 'NONE', #218, #116, #196 ) ;
#45 = PERSON_AND_ORGANIZATION ( #126, #219 ) ;
#46 = PERSON_AND_ORGANIZATION ( #126, #219 ) ;
#47 = PERSON_AND_ORGANIZATION ( #126, #219 ) ;
#48 = CC_DESIGN_PERSON_AND_ORGANIZATION_ASSIGNMENT ( #185, #12, ( #228 ) ) ;
#49 = VERTEX_POINT ( 'NONE', #31 ) ;
#50 = LOCAL_TIME ( 14, 3, 59.00000000000000000, #79 ) ;
#51 = EDGE_CURVE ( 'NONE', #131, #131, #55, .T. ) ;
#52 = LOCAL_TIME ( 14, 3, 59.00000000000000000, #64 ) ;
#53 = EDGE_LOOP ( 'NONE', ( #158 ) ) ;
#54 = CARTESIAN_POINT ( 'NONE',  ( 4.538925740496074119E-13, -1.592040838891559450E-14, 130.0000000000000000 ) ) ;
#55 = CIRCLE ( 'NONE', #159, 10.00000000000000000 ) ;
#56 = FACE_BOUND ( 'NONE', #171, .T. ) ;
#57 = MANIFOLD_SOLID_BREP ( 'Corps-Déplacer/Copier1[1]', #80 ) ;
#58 = CARTESIAN_POINT ( 'NONE',  ( 6.982962677686266711E-14, -2.449827320454828702E-15, 20.00000000000000000 ) ) ;
#59 = DIRECTION ( 'NONE',  ( 0.0000000000000000000, 1.000000000000000000, 0.0000000000000000000 ) ) ;
#60 = ADVANCED_FACE ( 'NONE', ( #214 ), #151, .T. ) ;
#61 = DATE_AND_TIME ( #237, #231 ) ;
#62 = AXIS2_PLACEMENT_3D ( 'NONE', #38, #187, #139 ) ;
#63 = CALENDAR_DATE ( 2021, 15, 11 ) ;
#64 = COORDINATED_UNIVERSAL_TIME_OFFSET ( 1, 0, .AHEAD. ) ;
#65 = APPLICATION_CONTEXT ( 'configuration controlled 3d designs of mechanical parts and assemblies' ) ;
#66 = CC_DESIGN_APPROVAL ( #30, ( #184 ) ) ;
#67 = EDGE_CURVE ( 'NONE', #242, #242, #113, .T. ) ;
#68 = CALENDAR_DATE ( 2021, 15, 11 ) ;
#69 = EDGE_CURVE ( 'NONE', #161, #161, #23, .T. ) ;
#70 = EDGE_LOOP ( 'NONE', ( #235 ) ) ;
#71 = CYLINDRICAL_SURFACE ( 'NONE', #83, 10.00000000000000000 ) ;
#72 = EDGE_LOOP ( 'NONE', ( #32 ) ) ;
#73 = DIRECTION ( 'NONE',  ( 3.491481338843133355E-15, -1.224646799147353207E-16, 1.000000000000000000 ) ) ;
#74 = APPROVAL_ROLE ( '' ) ;
#75 = DIRECTION ( 'NONE',  ( -4.275831445896958607E-31, -1.000000000000000000, -1.224646799147353207E-16 ) ) ;
#76 = APPROVAL_PERSON_ORGANIZATION ( #46, #188, #74 ) ;
#77 = ADVANCED_FACE ( 'NONE', ( #7, #179 ), #71, .T. ) ;
#78 = CARTESIAN_POINT ( 'NONE',  ( 4.504010927107641902E-13, 9.999999999999984013, 129.0000000000000000 ) ) ;
#79 = COORDINATED_UNIVERSAL_TIME_OFFSET ( 1, 0, .AHEAD. ) ;
#80 = CLOSED_SHELL ( 'NONE', ( #201, #174, #149, #243, #217, #155 ) ) ;
#81 = PERSON_AND_ORGANIZATION ( #126, #219 ) ;
#82 = DIRECTION ( 'NONE',  ( -4.276763186378057229E-31, -1.000000000000000000, -1.224913660227414450E-16 ) ) ;
#83 = AXIS2_PLACEMENT_3D ( 'NONE', #152, #238, #115 ) ;
#84 = ORIENTED_EDGE ( 'NONE', *, *, #69, .T. ) ;
#85 = ADVANCED_BREP_SHAPE_REPRESENTATION ( '49286', ( #57, #226, #225 ), #239 ) ;
#86 = COORDINATED_UNIVERSAL_TIME_OFFSET ( 1, 0, .AHEAD. ) ;
#87 = CC_DESIGN_DATE_AND_TIME_ASSIGNMENT ( #143, #227, ( #228 ) ) ;
#88 = DIRECTION ( 'NONE',  ( 4.276763186378056353E-31, 1.000000000000000000, 1.224913660227414450E-16 ) ) ;
#89 = SECURITY_CLASSIFICATION_LEVEL ( 'unclassified' ) ;
#90 = ORIENTED_EDGE ( 'NONE', *, *, #22, .F. ) ;
#91 = FACE_OUTER_BOUND ( 'NONE', #53, .T. ) ;
#92 = ORIENTED_EDGE ( 'NONE', *, *, #99, .T. ) ;
#93 = FACE_OUTER_BOUND ( 'NONE', #194, .T. ) ;
#94 = FACE_OUTER_BOUND ( 'NONE', #107, .T. ) ;
#95 = DIRECTION ( 'NONE',  ( 0.0000000000000000000, -1.000000000000000000, 0.0000000000000000000 ) ) ;
#96 = APPLICATION_PROTOCOL_DEFINITION ( 'international standard', 'config_control_design', 1994, #240 ) ;
#97 = DIRECTION ( 'NONE',  ( 4.275831445896958607E-31, 1.000000000000000000, 1.224646799147353207E-16 ) ) ;
#98 = FACE_OUTER_BOUND ( 'NONE', #72, .T. ) ;
#99 = EDGE_CURVE ( 'NONE', #138, #138, #195, .T. ) ;
#100 = CC_DESIGN_SECURITY_CLASSIFICATION ( #184, ( #162 ) ) ;
#101 = CARTESIAN_POINT ( 'NONE',  ( 0.0000000000000000000, 0.0000000000000000000, 0.0000000000000000000 ) ) ;
#102 =( NAMED_UNIT ( * ) PLANE_ANGLE_UNIT ( ) SI_UNIT ( $, .RADIAN. ) );
#103 = DIRECTION ( 'NONE',  ( 4.275831445896958607E-31, 1.000000000000000000, 1.224646799147353207E-16 ) ) ;
#104 = DATE_AND_TIME ( #68, #1 ) ;
#105 = PERSON_AND_ORGANIZATION_ROLE ( 'design_supplier' ) ;
#106 = VERTEX_POINT ( 'NONE', #172 ) ;
#107 = EDGE_LOOP ( 'NONE', ( #84 ) ) ;
#108 = COORDINATED_UNIVERSAL_TIME_OFFSET ( 1, 0, .AHEAD. ) ;
#109 = CIRCLE ( 'NONE', #33, 10.00000000000000000 ) ;
#110 = CC_DESIGN_PERSON_AND_ORGANIZATION_ASSIGNMENT ( #81, #165, ( #184 ) ) ;
#111 = CARTESIAN_POINT ( 'NONE',  ( -2.137915722948479128E-30, 7.498798913309288039E-32, -6.123233995736766282E-16 ) ) ;
#112 = CC_DESIGN_APPROVAL ( #129, ( #228 ) ) ;
#113 = CIRCLE ( 'NONE', #18, 9.800000000000004263 ) ;
#114 = ORIENTED_EDGE ( 'NONE', *, *, #99, .F. ) ;
#115 = DIRECTION ( 'NONE',  ( 4.275831445896958607E-31, 1.000000000000000000, 1.224646799147353207E-16 ) ) ;
#116 = DIRECTION ( 'NONE',  ( -3.491481338843133355E-15, 1.224646799147353207E-16, -1.000000000000000000 ) ) ;
#117 = AXIS2_PLACEMENT_3D ( 'NONE', #58, #198, #95 ) ;
#118 = DIRECTION ( 'NONE',  ( 0.0000000000000000000, 1.000000000000000000, 0.0000000000000000000 ) ) ;
#119 = DESIGN_CONTEXT ( 'detailed design', #65, 'design' ) ;
#120 = AXIS2_PLACEMENT_3D ( 'NONE', #137, #205, #103 ) ;
#121 = CALENDAR_DATE ( 2021, 15, 11 ) ;
#122 = PERSON_AND_ORGANIZATION_ROLE ( 'design_owner' ) ;
#123 = PLANE ( 'NONE',  #146 ) ;
#124 = AXIS2_PLACEMENT_3D ( 'NONE', #175, #154, #97 ) ;
#125 = ADVANCED_FACE ( 'NONE', ( #94 ), #11, .T. ) ;
#126 = PERSON ( 'UNSPECIFIED', 'UNSPECIFIED', 'UNSPECIFIED', ('UNSPECIFIED'), ('UNSPECIFIED'), ('UNSPECIFIED') ) ;
#127 = AXIS2_PLACEMENT_3D ( 'NONE', #181, #173, #75 ) ;
#128 = FACE_OUTER_BOUND ( 'NONE', #40, .T. ) ;
#129 = APPROVAL ( #160, 'UNSPECIFIED' ) ;
#130 = DIRECTION ( 'NONE',  ( -3.491481338843133355E-15, 1.224646799147353207E-16, -1.000000000000000000 ) ) ;
#131 = VERTEX_POINT ( 'NONE', #78 ) ;
#132 = DIRECTION ( 'NONE',  ( -4.275831445896958607E-31, -1.000000000000000000, -1.224646799147353207E-16 ) ) ;
#133 = PLANE ( 'NONE',  #127 ) ;
#134 = CARTESIAN_POINT ( 'NONE',  ( 6.982962677686266711E-14, 7.498798913309285850E-32, 20.00000000000000000 ) ) ;
#135 = DIRECTION ( 'NONE',  ( 0.0000000000000000000, -1.000000000000000000, 0.0000000000000000000 ) ) ;
#136 = CC_DESIGN_PERSON_AND_ORGANIZATION_ASSIGNMENT ( #212, #211, ( #162 ) ) ;
#137 = CARTESIAN_POINT ( 'NONE',  ( 0.0000000000000000000, 0.0000000000000000000, 0.0000000000000000000 ) ) ;
#138 = VERTEX_POINT ( 'NONE', #204 ) ;
#139 = DIRECTION ( 'NONE',  ( 0.0000000000000000000, 1.000000000000000000, 0.0000000000000000000 ) ) ;
#140 = CIRCLE ( 'NONE', #117, 9.800000000000004263 ) ;
#141 = DIRECTION ( 'NONE',  ( 0.0000000000000000000, 0.0000000000000000000, 1.000000000000000000 ) ) ;
#142 = UNCERTAINTY_MEASURE_WITH_UNIT (LENGTH_MEASURE( 1.000000000000000082E-05 ), #41, 'distance_accuracy_value', 'NONE');
#143 = DATE_AND_TIME ( #121, #52 ) ;
#144 = CARTESIAN_POINT ( 'NONE',  ( 0.0000000000000000000, 0.0000000000000000000, 0.0000000000000000000 ) ) ;
#145 = CALENDAR_DATE ( 2021, 15, 11 ) ;
#146 = AXIS2_PLACEMENT_3D ( 'NONE', #164, #20, #88 ) ;
#147 = FACE_OUTER_BOUND ( 'NONE', #15, .T. ) ;
#148 = EDGE_LOOP ( 'NONE', ( #6 ) ) ;
#149 = ADVANCED_FACE ( 'NONE', ( #234 ), #202, .F. ) ;
#150 = VERTEX_POINT ( 'NONE', #27 ) ;
#151 = PLANE ( 'NONE',  #213 ) ;
#152 = CARTESIAN_POINT ( 'NONE',  ( 0.0000000000000000000, 0.0000000000000000000, 0.0000000000000000000 ) ) ;
#153 = CARTESIAN_POINT ( 'NONE',  ( 6.982962677686266711E-14, -2.449293598294706513E-15, 20.00000000000000000 ) ) ;
#154 = DIRECTION ( 'NONE',  ( -3.491481338843133355E-15, 1.224646799147353207E-16, -1.000000000000000000 ) ) ;
#155 = ADVANCED_FACE ( 'NONE', ( #93 ), #133, .F. ) ;
#156 = PRODUCT_DEFINITION_SHAPE ( 'NONE', 'NONE',  #228 ) ;
#157 = COORDINATED_UNIVERSAL_TIME_OFFSET ( 1, 0, .AHEAD. ) ;
#158 = ORIENTED_EDGE ( 'NONE', *, *, #67, .F. ) ;
#159 = AXIS2_PLACEMENT_3D ( 'NONE', #26, #28, #118 ) ;
#160 = APPROVAL_STATUS ( 'not_yet_approved' ) ;
#161 = VERTEX_POINT ( 'NONE', #183 ) ;
#162 = PRODUCT_DEFINITION_FORMATION_WITH_SPECIFIED_SOURCE ( 'ANY', '', #223, .NOT_KNOWN. ) ;
#163 = CYLINDRICAL_SURFACE ( 'NONE', #120, 10.00000000000000000 ) ;
#164 = CARTESIAN_POINT ( 'NONE',  ( 2.793185071074506684E-13, 9.799999999999993605, 80.00000000000000000 ) ) ;
#165 = PERSON_AND_ORGANIZATION_ROLE ( 'classification_officer' ) ;
#166 = CLOSED_SHELL ( 'NONE', ( #125, #77, #60 ) ) ;
#167 = ORIENTED_EDGE ( 'NONE', *, *, #5, .T. ) ;
#168 = APPROVAL_DATE_TIME ( #232, #30 ) ;
#169 = APPROVAL_DATE_TIME ( #61, #188 ) ;
#170 = ORIENTED_EDGE ( 'NONE', *, *, #42, .F. ) ;
#171 = EDGE_LOOP ( 'NONE', ( #21 ) ) ;
#172 = CARTESIAN_POINT ( 'NONE',  ( 6.982962677686266711E-14, 9.999999999999998224, 20.00000000000000000 ) ) ;
#173 = DIRECTION ( 'NONE',  ( 3.491481338843133355E-15, -1.224646799147353207E-16, 1.000000000000000000 ) ) ;
#174 = ADVANCED_FACE ( 'NONE', ( #56, #216 ), #191, .T. ) ;
#175 = CARTESIAN_POINT ( 'NONE',  ( -4.275831445896958256E-30, 1.499759782661857608E-31, -1.224646799147353256E-15 ) ) ;
#176 = SHAPE_DEFINITION_REPRESENTATION ( #156, #85 ) ;
#177 = DIRECTION ( 'NONE',  ( -3.491481338843133355E-15, 1.224646799147353207E-16, -1.000000000000000000 ) ) ;
#178 = AXIS2_PLACEMENT_3D ( 'NONE', #9, #8, #135 ) ;
#179 = FACE_OUTER_BOUND ( 'NONE', #70, .T. ) ;
#180 = DATE_AND_TIME ( #63, #50 ) ;
#181 = CARTESIAN_POINT ( 'NONE',  ( 6.982962677686266711E-14, 7.498798913309285850E-32, 20.00000000000000000 ) ) ;
#182 = CC_DESIGN_PERSON_AND_ORGANIZATION_ASSIGNMENT ( #207, #122, ( #223 ) ) ;
#183 = CARTESIAN_POINT ( 'NONE',  ( 0.0000000000000000000, 10.00000000000000000, 0.0000000000000000000 ) ) ;
#184 = SECURITY_CLASSIFICATION ( '', '', #89 ) ;
#185 = PERSON_AND_ORGANIZATION ( #126, #219 ) ;
#186 = AXIS2_PLACEMENT_3D ( 'NONE', #54, #130, #197 ) ;
#187 = DIRECTION ( 'NONE',  ( -3.491481338843133355E-15, 1.224646799147353207E-16, -1.000000000000000000 ) ) ;
#188 = APPROVAL ( #10, 'UNSPECIFIED' ) ;
#189 = ORIENTED_EDGE ( 'NONE', *, *, #22, .T. ) ;
#190 = ORIENTED_EDGE ( 'NONE', *, *, #51, .F. ) ;
#191 = CONICAL_SURFACE ( 'NONE', #62, 10.00000000000000000, 0.7853981633974482790 ) ;
#192 = FACE_BOUND ( 'NONE', #148, .T. ) ;
#193 = PRODUCT_RELATED_PRODUCT_CATEGORY ( 'detail', '', ( #223 ) ) ;
#194 = EDGE_LOOP ( 'NONE', ( #34 ) ) ;
#195 = CIRCLE ( 'NONE', #178, 10.00000000000000888 ) ;
#196 = DIRECTION ( 'NONE',  ( 4.275831445896958607E-31, 1.000000000000000000, 1.224646799147353207E-16 ) ) ;
#197 = DIRECTION ( 'NONE',  ( 0.0000000000000000000, 1.000000000000000000, 0.0000000000000000000 ) ) ;
#198 = DIRECTION ( 'NONE',  ( 3.491481338843133355E-15, -1.224913660227414450E-16, 1.000000000000000000 ) ) ;
#199 = DIRECTION ( 'NONE',  ( -3.491481338843133355E-15, 1.224646799147353207E-16, -1.000000000000000000 ) ) ;
#200 = LOCAL_TIME ( 14, 3, 59.00000000000000000, #86 ) ;
#201 = ADVANCED_FACE ( 'NONE', ( #98, #224 ), #163, .T. ) ;
#202 = PLANE ( 'NONE',  #44 ) ;
#203 = DIRECTION ( 'NONE',  ( 1.000000000000000000, 0.0000000000000000000, 0.0000000000000000000 ) ) ;
#204 = CARTESIAN_POINT ( 'NONE',  ( 2.793185071074506684E-13, -10.00000000000001954, 80.00000000000000000 ) ) ;
#205 = DIRECTION ( 'NONE',  ( -3.491481338843133355E-15, 1.224646799147353207E-16, -1.000000000000000000 ) ) ;
#206 = CARTESIAN_POINT ( 'NONE',  ( 2.793185071074506684E-13, -9.800000000000014921, 80.00000000000000000 ) ) ;
#207 = PERSON_AND_ORGANIZATION ( #126, #219 ) ;
#208 = AXIS2_PLACEMENT_3D ( 'NONE', #144, #230, #82 ) ;
#209 = APPROVAL_ROLE ( '' ) ;
#210 = CC_DESIGN_PERSON_AND_ORGANIZATION_ASSIGNMENT ( #3, #105, ( #162 ) ) ;
#211 = PERSON_AND_ORGANIZATION_ROLE ( 'creator' ) ;
#212 = PERSON_AND_ORGANIZATION ( #126, #219 ) ;
#213 = AXIS2_PLACEMENT_3D ( 'NONE', #134, #73, #132 ) ;
#214 = FACE_OUTER_BOUND ( 'NONE', #17, .T. ) ;
#215 = DIRECTION ( 'NONE',  ( 0.0000000000000000000, -1.000000000000000000, 0.0000000000000000000 ) ) ;
#216 = FACE_OUTER_BOUND ( 'NONE', #25, .T. ) ;
#217 = ADVANCED_FACE ( 'NONE', ( #192, #147 ), #123, .T. ) ;
#218 = CARTESIAN_POINT ( 'NONE',  ( 4.538925740496074119E-13, 6.748919021978335150E-32, 130.0000000000000000 ) ) ;
#219 = ORGANIZATION ( 'UNSPECIFIED', 'UNSPECIFIED', '' ) ;
#220 = APPLICATION_PROTOCOL_DEFINITION ( 'international standard', 'config_control_design', 1994, #65 ) ;
#221 = APPROVAL_DATE_TIME ( #180, #129 ) ;
#222 = CC_DESIGN_DATE_AND_TIME_ASSIGNMENT ( #104, #229, ( #184 ) ) ;
#223 = PRODUCT ( '49286', '49286', '', ( #43 ) ) ;
#224 = FACE_OUTER_BOUND ( 'NONE', #37, .T. ) ;
#225 = AXIS2_PLACEMENT_3D ( 'NONE', #101, #141, #203 ) ;
#226 = MANIFOLD_SOLID_BREP ( 'Corps-Déplacer/Copier1[2]', #166 ) ;
#227 = DATE_TIME_ROLE ( 'creation_date' ) ;
#228 = PRODUCT_DEFINITION ( 'UNKNOWN', '', #162, #119 ) ;
#229 = DATE_TIME_ROLE ( 'classification_date' ) ;
#230 = DIRECTION ( 'NONE',  ( 3.491481338843133355E-15, -1.224913660227414450E-16, 1.000000000000000000 ) ) ;
#231 = LOCAL_TIME ( 14, 3, 59.00000000000000000, #157 ) ;
#232 = DATE_AND_TIME ( #145, #200 ) ;
#233 = APPROVAL_PERSON_ORGANIZATION ( #45, #129, #13 ) ;
#234 = FACE_OUTER_BOUND ( 'NONE', #2, .T. ) ;
#235 = ORIENTED_EDGE ( 'NONE', *, *, #69, .F. ) ;
#236 = EDGE_LOOP ( 'NONE', ( #189 ) ) ;
#237 = CALENDAR_DATE ( 2021, 15, 11 ) ;
#238 = DIRECTION ( 'NONE',  ( -3.491481338843133355E-15, 1.224646799147353207E-16, -1.000000000000000000 ) ) ;
#239 =( GEOMETRIC_REPRESENTATION_CONTEXT ( 3 ) GLOBAL_UNCERTAINTY_ASSIGNED_CONTEXT ( ( #142 ) ) GLOBAL_UNIT_ASSIGNED_CONTEXT ( ( #41, #102, #29 ) ) REPRESENTATION_CONTEXT ( 'NONE', 'WORKASPACE' ) );
#240 = APPLICATION_CONTEXT ( 'configuration controlled 3d designs of mechanical parts and assemblies' ) ;
#241 = APPROVAL_PERSON_ORGANIZATION ( #47, #30, #209 ) ;
#242 = VERTEX_POINT ( 'NONE', #206 ) ;
#243 = ADVANCED_FACE ( 'NONE', ( #128, #91 ), #16, .T. ) ;
ENDSEC;
END-ISO-10303-21;
