ISO-10303-21;
HEADER;
FILE_DESCRIPTION (( 'STEP AP203' ),
    '1' );
FILE_NAME ('49285.step',
    '2021-11-15T13:03:59',
    ( '' ),
    ( '' ),
    'SwSTEP 2.0',
    'SolidWorks 2019',
    '' );
FILE_SCHEMA (( 'CONFIG_CONTROL_DESIGN' ));
ENDSEC;

DATA;
#1 = CC_DESIGN_PERSON_AND_ORGANIZATION_ASSIGNMENT ( #195, #22, ( #207 ) ) ;
#2 = CARTESIAN_POINT ( 'NONE',  ( 5.586370142149013368E-14, 5.999039130647427147E-32, 16.00000000000000000 ) ) ;
#3 = DIRECTION ( 'NONE',  ( 4.275831445896958607E-31, 1.000000000000000000, 1.224646799147353207E-16 ) ) ;
#4 = APPLICATION_PROTOCOL_DEFINITION ( 'international standard', 'config_control_design', 1994, #150 ) ;
#5 = DIRECTION ( 'NONE',  ( -4.275831445896958607E-31, -1.000000000000000000, -1.224646799147353207E-16 ) ) ;
#6 = CC_DESIGN_DATE_AND_TIME_ASSIGNMENT ( #75, #83, ( #106 ) ) ;
#7 = CIRCLE ( 'NONE', #118, 8.000000000000000000 ) ;
#8 = LOCAL_TIME ( 14, 3, 59.00000000000000000, #210 ) ;
#9 = COORDINATED_UNIVERSAL_TIME_OFFSET ( 1, 0, .AHEAD. ) ;
#10 = EDGE_CURVE ( 'NONE', #178, #178, #50, .T. ) ;
#11 = VERTEX_POINT ( 'NONE', #99 ) ;
#12 = CIRCLE ( 'NONE', #44, 8.000000000000000000 ) ;
#13 = AXIS2_PLACEMENT_3D ( 'NONE', #213, #92, #171 ) ;
#14 = PERSON_AND_ORGANIZATION_ROLE ( 'classification_officer' ) ;
#15 = COORDINATED_UNIVERSAL_TIME_OFFSET ( 1, 0, .AHEAD. ) ;
#16 = FACE_BOUND ( 'NONE', #70, .T. ) ;
#17 = DIRECTION ( 'NONE',  ( 0.0000000000000000000, 1.000000000000000000, 0.0000000000000000000 ) ) ;
#18 = PLANE ( 'NONE',  #126 ) ;
#19 = CC_DESIGN_PERSON_AND_ORGANIZATION_ASSIGNMENT ( #188, #14, ( #106 ) ) ;
#20 = DIRECTION ( 'NONE',  ( -3.491481338843133355E-15, 1.224646799147353207E-16, -1.000000000000000000 ) ) ;
#21 = CC_DESIGN_APPROVAL ( #216, ( #139 ) ) ;
#22 = PERSON_AND_ORGANIZATION_ROLE ( 'design_owner' ) ;
#23 = VERTEX_POINT ( 'NONE', #196 ) ;
#24 = VERTEX_POINT ( 'NONE', #100 ) ;
#25 = AXIS2_PLACEMENT_3D ( 'NONE', #230, #130, #132 ) ;
#26 = CARTESIAN_POINT ( 'NONE',  ( 5.586370142149013368E-14, 7.999999999999998224, 16.00000000000000000 ) ) ;
#27 = ADVANCED_FACE ( 'NONE', ( #192, #176 ), #173, .T. ) ;
#28 = APPROVAL_PERSON_ORGANIZATION ( #190, #216, #49 ) ;
#29 = EDGE_CURVE ( 'NONE', #42, #42, #7, .T. ) ;
#30 = SECURITY_CLASSIFICATION_LEVEL ( 'unclassified' ) ;
#31 = APPROVAL_PERSON_ORGANIZATION ( #135, #198, #156 ) ;
#32 = ADVANCED_BREP_SHAPE_REPRESENTATION ( '49285', ( #69, #148, #122 ), #170 ) ;
#33 = CALENDAR_DATE ( 2021, 15, 11 ) ;
#34 = DIRECTION ( 'NONE',  ( -3.491481338843133355E-15, 1.224646799147353207E-16, -1.000000000000000000 ) ) ;
#35 = DIRECTION ( 'NONE',  ( 3.491481338843133355E-15, -1.224913660227414450E-16, 1.000000000000000000 ) ) ;
#36 = DIRECTION ( 'NONE',  ( 4.276763186378056353E-31, 1.000000000000000000, 1.224913660227414450E-16 ) ) ;
#37 = CARTESIAN_POINT ( 'NONE',  ( 2.513866563967056016E-13, 7.799999999999992717, 72.00000000000000000 ) ) ;
#38 = AXIS2_PLACEMENT_3D ( 'NONE', #2, #153, #194 ) ;
#39 = COORDINATED_UNIVERSAL_TIME_OFFSET ( 1, 0, .AHEAD. ) ;
#40 = DIRECTION ( 'NONE',  ( 1.000000000000000000, 0.0000000000000000000, 0.0000000000000000000 ) ) ;
#41 = CALENDAR_DATE ( 2021, 15, 11 ) ;
#42 = VERTEX_POINT ( 'NONE', #161 ) ;
#43 = CLOSED_SHELL ( 'NONE', ( #95, #27, #237 ) ) ;
#44 = AXIS2_PLACEMENT_3D ( 'NONE', #53, #154, #17 ) ;
#45 = AXIS2_PLACEMENT_3D ( 'NONE', #46, #197, #67 ) ;
#46 = CARTESIAN_POINT ( 'NONE',  ( 0.0000000000000000000, 0.0000000000000000000, 0.0000000000000000000 ) ) ;
#47 = PRODUCT_DEFINITION ( 'UNKNOWN', '', #139, #90 ) ;
#48 = DATE_AND_TIME ( #141, #62 ) ;
#49 = APPROVAL_ROLE ( '' ) ;
#50 = CIRCLE ( 'NONE', #73, 7.800000000000000711 ) ;
#51 = EDGE_LOOP ( 'NONE', ( #167 ) ) ;
#52 = DIRECTION ( 'NONE',  ( 4.275831445896958607E-31, 1.000000000000000000, 1.224646799147353207E-16 ) ) ;
#53 = CARTESIAN_POINT ( 'NONE',  ( 5.586370142149013368E-14, -1.959434878635765131E-15, 16.00000000000000000 ) ) ;
#54 = DIRECTION ( 'NONE',  ( -3.491481338843133355E-15, 1.224646799147353207E-16, -1.000000000000000000 ) ) ;
#55 = PERSON_AND_ORGANIZATION_ROLE ( 'creator' ) ;
#56 = FACE_BOUND ( 'NONE', #226, .T. ) ;
#57 = CARTESIAN_POINT ( 'NONE',  ( 2.513866563967056016E-13, -8.819378353637384431E-15, 72.00000000000000000 ) ) ;
#58 = APPLICATION_CONTEXT ( 'configuration controlled 3d designs of mechanical parts and assemblies' ) ;
#59 = ADVANCED_FACE ( 'NONE', ( #56, #91 ), #152, .T. ) ;
#60 = DATE_AND_TIME ( #231, #110 ) ;
#61 = CONICAL_SURFACE ( 'NONE', #166, 7.999999999999998224, 0.7853981633974457255 ) ;
#62 = LOCAL_TIME ( 14, 3, 59.00000000000000000, #155 ) ;
#63 = DIRECTION ( 'NONE',  ( 4.275831445896958607E-31, 1.000000000000000000, 1.224646799147353207E-16 ) ) ;
#64 = CARTESIAN_POINT ( 'NONE',  ( 5.586370142149013368E-14, 5.999039130647427147E-32, 16.00000000000000000 ) ) ;
#65 = CARTESIAN_POINT ( 'NONE',  ( 0.0000000000000000000, 0.0000000000000000000, 0.0000000000000000000 ) ) ;
#66 = AXIS2_PLACEMENT_3D ( 'NONE', #149, #224, #52 ) ;
#67 = DIRECTION ( 'NONE',  ( -4.276763186378056353E-31, -1.000000000000000000, -1.224913660227414450E-16 ) ) ;
#68 = EDGE_LOOP ( 'NONE', ( #214 ) ) ;
#69 = MANIFOLD_SOLID_BREP ( 'Corps-Déplacer/Copier1[1]', #105 ) ;
#70 = EDGE_LOOP ( 'NONE', ( #79 ) ) ;
#71 = EDGE_LOOP ( 'NONE', ( #240 ) ) ;
#72 = EDGE_LOOP ( 'NONE', ( #193 ) ) ;
#73 = AXIS2_PLACEMENT_3D ( 'NONE', #78, #35, #168 ) ;
#74 = PLANE ( 'NONE',  #66 ) ;
#75 = DATE_AND_TIME ( #33, #8 ) ;
#76 = CARTESIAN_POINT ( 'NONE',  ( 0.0000000000000000000, 0.0000000000000000000, 0.0000000000000000000 ) ) ;
#77 = DIRECTION ( 'NONE',  ( 0.0000000000000000000, -1.000000000000000000, 0.0000000000000000000 ) ) ;
#78 = CARTESIAN_POINT ( 'NONE',  ( 5.586370142149013368E-14, -1.959861856363863119E-15, 16.00000000000000000 ) ) ;
#79 = ORIENTED_EDGE ( 'NONE', *, *, #103, .T. ) ;
#80 = APPROVAL_STATUS ( 'not_yet_approved' ) ;
#81 = APPROVAL_STATUS ( 'not_yet_approved' ) ;
#82 = FACE_OUTER_BOUND ( 'NONE', #88, .T. ) ;
#83 = DATE_TIME_ROLE ( 'classification_date' ) ;
#84 =( NAMED_UNIT ( * ) SI_UNIT ( $, .STERADIAN. ) SOLID_ANGLE_UNIT ( ) );
#85 = EDGE_LOOP ( 'NONE', ( #142 ) ) ;
#86 = EDGE_LOOP ( 'NONE', ( #238 ) ) ;
#87 = CALENDAR_DATE ( 2021, 15, 11 ) ;
#88 = EDGE_LOOP ( 'NONE', ( #131 ) ) ;
#89 = CC_DESIGN_APPROVAL ( #198, ( #47 ) ) ;
#90 = DESIGN_CONTEXT ( 'detailed design', #58, 'design' ) ;
#91 = FACE_OUTER_BOUND ( 'NONE', #86, .T. ) ;
#92 = DIRECTION ( 'NONE',  ( -3.491481338843133355E-15, 1.224646799147353207E-16, -1.000000000000000000 ) ) ;
#93 = DIRECTION ( 'NONE',  ( -3.491481338843133355E-15, 1.224646799147353207E-16, -1.000000000000000000 ) ) ;
#94 = FACE_OUTER_BOUND ( 'NONE', #71, .T. ) ;
#95 = ADVANCED_FACE ( 'NONE', ( #112 ), #74, .T. ) ;
#96 = FACE_OUTER_BOUND ( 'NONE', #127, .T. ) ;
#97 = CC_DESIGN_APPROVAL ( #138, ( #106 ) ) ;
#98 = APPLICATION_PROTOCOL_DEFINITION ( 'international standard', 'config_control_design', 1994, #58 ) ;
#99 = CARTESIAN_POINT ( 'NONE',  ( 2.513866563967056016E-13, -7.800000000000010481, 72.00000000000000000 ) ) ;
#100 = CARTESIAN_POINT ( 'NONE',  ( 4.189777606611760026E-13, 7.499999999999985789, 120.0000000000000000 ) ) ;
#101 = EDGE_CURVE ( 'NONE', #199, #199, #232, .T. ) ;
#102 = AXIS2_PLACEMENT_3D ( 'NONE', #76, #20, #3 ) ;
#103 = EDGE_CURVE ( 'NONE', #24, #24, #179, .T. ) ;
#104 = EDGE_CURVE ( 'NONE', #219, #219, #12, .T. ) ;
#105 = CLOSED_SHELL ( 'NONE', ( #239, #163, #147, #235, #59, #208 ) ) ;
#106 = SECURITY_CLASSIFICATION ( '', '', #30 ) ;
#107 = ORIENTED_EDGE ( 'NONE', *, *, #10, .T. ) ;
#108 = CC_DESIGN_PERSON_AND_ORGANIZATION_ASSIGNMENT ( #124, #206, ( #139 ) ) ;
#109 = DIRECTION ( 'NONE',  ( 4.275831445896958607E-31, 1.000000000000000000, 1.224646799147353207E-16 ) ) ;
#110 = LOCAL_TIME ( 14, 3, 59.00000000000000000, #9 ) ;
#111 = PLANE ( 'NONE',  #38 ) ;
#112 = FACE_OUTER_BOUND ( 'NONE', #68, .T. ) ;
#113 = DIRECTION ( 'NONE',  ( 4.275831445896958607E-31, 1.000000000000000000, 1.224646799147353207E-16 ) ) ;
#114 = DATE_AND_TIME ( #41, #221 ) ;
#115 = CARTESIAN_POINT ( 'NONE',  ( 5.586370142149013368E-14, -7.800000000000002487, 16.00000000000000000 ) ) ;
#116 = FACE_OUTER_BOUND ( 'NONE', #51, .T. ) ;
#117 = DIRECTION ( 'NONE',  ( 3.491481338843133355E-15, -1.224646799147353207E-16, 1.000000000000000000 ) ) ;
#118 = AXIS2_PLACEMENT_3D ( 'NONE', #151, #54, #113 ) ;
#119 = LOCAL_TIME ( 14, 3, 59.00000000000000000, #15 ) ;
#120 = APPROVAL_ROLE ( '' ) ;
#121 = PLANE ( 'NONE',  #233 ) ;
#122 = AXIS2_PLACEMENT_3D ( 'NONE', #65, #162, #40 ) ;
#123 = DATE_AND_TIME ( #87, #119 ) ;
#124 = PERSON_AND_ORGANIZATION ( #201, #183 ) ;
#125 = DATE_TIME_ROLE ( 'creation_date' ) ;
#126 = AXIS2_PLACEMENT_3D ( 'NONE', #215, #34, #109 ) ;
#127 = EDGE_LOOP ( 'NONE', ( #107 ) ) ;
#128 = PERSON_AND_ORGANIZATION ( #201, #183 ) ;
#129 = DIRECTION ( 'NONE',  ( 0.0000000000000000000, -1.000000000000000000, 0.0000000000000000000 ) ) ;
#130 = DIRECTION ( 'NONE',  ( -3.491481338843133355E-15, 1.224646799147353207E-16, -1.000000000000000000 ) ) ;
#131 = ORIENTED_EDGE ( 'NONE', *, *, #160, .F. ) ;
#132 = DIRECTION ( 'NONE',  ( 0.0000000000000000000, 1.000000000000000000, 0.0000000000000000000 ) ) ;
#133 = DIRECTION ( 'NONE',  ( 3.491481338843133355E-15, -1.224913660227414450E-16, 1.000000000000000000 ) ) ;
#134 = CC_DESIGN_DATE_AND_TIME_ASSIGNMENT ( #48, #125, ( #47 ) ) ;
#135 = PERSON_AND_ORGANIZATION ( #201, #183 ) ;
#136 = CYLINDRICAL_SURFACE ( 'NONE', #223, 8.000000000000000000 ) ;
#137 =( LENGTH_UNIT ( ) NAMED_UNIT ( * ) SI_UNIT ( .MILLI., .METRE. ) );
#138 = APPROVAL ( #81, 'UNSPECIFIED' ) ;
#139 = PRODUCT_DEFINITION_FORMATION_WITH_SPECIFIED_SOURCE ( 'ANY', '', #207, .NOT_KNOWN. ) ;
#140 = ORIENTED_EDGE ( 'NONE', *, *, #103, .F. ) ;
#141 = CALENDAR_DATE ( 2021, 15, 11 ) ;
#142 = ORIENTED_EDGE ( 'NONE', *, *, #101, .T. ) ;
#143 = PERSON_AND_ORGANIZATION_ROLE ( 'creator' ) ;
#144 = UNCERTAINTY_MEASURE_WITH_UNIT (LENGTH_MEASURE( 1.000000000000000082E-05 ), #137, 'distance_accuracy_value', 'NONE');
#145 = APPROVAL_DATE_TIME ( #60, #198 ) ;
#146 = ORIENTED_EDGE ( 'NONE', *, *, #104, .F. ) ;
#147 = ADVANCED_FACE ( 'NONE', ( #211 ), #18, .F. ) ;
#148 = MANIFOLD_SOLID_BREP ( 'Corps-Déplacer/Copier1[2]', #43 ) ;
#149 = CARTESIAN_POINT ( 'NONE',  ( -1.710332578358783092E-30, 5.999039130647430431E-32, -4.898587196589412829E-16 ) ) ;
#150 = APPLICATION_CONTEXT ( 'configuration controlled 3d designs of mechanical parts and assemblies' ) ;
#151 = CARTESIAN_POINT ( 'NONE',  ( -3.420665156717566185E-30, 1.199807826129486086E-31, -9.797174393178825657E-16 ) ) ;
#152 = PLANE ( 'NONE',  #175 ) ;
#153 = DIRECTION ( 'NONE',  ( 3.491481338843133355E-15, -1.224646799147353207E-16, 1.000000000000000000 ) ) ;
#154 = DIRECTION ( 'NONE',  ( -3.491481338843133355E-15, 1.224646799147353207E-16, -1.000000000000000000 ) ) ;
#155 = COORDINATED_UNIVERSAL_TIME_OFFSET ( 1, 0, .AHEAD. ) ;
#156 = APPROVAL_ROLE ( '' ) ;
#157 = PRODUCT_RELATED_PRODUCT_CATEGORY ( 'detail', '', ( #207 ) ) ;
#158 = APPROVAL_DATE_TIME ( #114, #138 ) ;
#159 = FACE_OUTER_BOUND ( 'NONE', #182, .T. ) ;
#160 = EDGE_CURVE ( 'NONE', #11, #11, #165, .T. ) ;
#161 = CARTESIAN_POINT ( 'NONE',  ( 6.842277657836020854E-46, 8.000000000000000000, 0.0000000000000000000 ) ) ;
#162 = DIRECTION ( 'NONE',  ( 0.0000000000000000000, 0.0000000000000000000, 1.000000000000000000 ) ) ;
#163 = ADVANCED_FACE ( 'NONE', ( #16, #94 ), #61, .T. ) ;
#164 = ORIENTED_EDGE ( 'NONE', *, *, #160, .T. ) ;
#165 = CIRCLE ( 'NONE', #169, 7.800000000000001599 ) ;
#166 = AXIS2_PLACEMENT_3D ( 'NONE', #174, #93, #191 ) ;
#167 = ORIENTED_EDGE ( 'NONE', *, *, #202, .T. ) ;
#168 = DIRECTION ( 'NONE',  ( 0.0000000000000000000, -1.000000000000000000, 0.0000000000000000000 ) ) ;
#169 = AXIS2_PLACEMENT_3D ( 'NONE', #57, #133, #77 ) ;
#170 =( GEOMETRIC_REPRESENTATION_CONTEXT ( 3 ) GLOBAL_UNCERTAINTY_ASSIGNED_CONTEXT ( ( #144 ) ) GLOBAL_UNIT_ASSIGNED_CONTEXT ( ( #137, #177, #84 ) ) REPRESENTATION_CONTEXT ( 'NONE', 'WORKASPACE' ) );
#171 = DIRECTION ( 'NONE',  ( 0.0000000000000000000, 1.000000000000000000, 0.0000000000000000000 ) ) ;
#172 = CC_DESIGN_PERSON_AND_ORGANIZATION_ASSIGNMENT ( #128, #143, ( #139 ) ) ;
#173 = CYLINDRICAL_SURFACE ( 'NONE', #102, 8.000000000000000000 ) ;
#174 = CARTESIAN_POINT ( 'NONE',  ( 4.172320199917544423E-13, -1.463452924981086914E-14, 119.5000000000000000 ) ) ;
#175 = AXIS2_PLACEMENT_3D ( 'NONE', #37, #189, #36 ) ;
#176 = FACE_OUTER_BOUND ( 'NONE', #222, .T. ) ;
#177 =( NAMED_UNIT ( * ) PLANE_ANGLE_UNIT ( ) SI_UNIT ( $, .RADIAN. ) );
#178 = VERTEX_POINT ( 'NONE', #115 ) ;
#179 = CIRCLE ( 'NONE', #25, 7.500000000000000888 ) ;
#180 = MECHANICAL_CONTEXT ( 'NONE', #150, 'mechanical' ) ;
#181 = FACE_OUTER_BOUND ( 'NONE', #85, .T. ) ;
#182 = EDGE_LOOP ( 'NONE', ( #146 ) ) ;
#183 = ORGANIZATION ( 'UNSPECIFIED', 'UNSPECIFIED', '' ) ;
#184 = APPROVAL_DATE_TIME ( #123, #216 ) ;
#185 = APPROVAL_STATUS ( 'not_yet_approved' ) ;
#186 = AXIS2_PLACEMENT_3D ( 'NONE', #228, #243, #129 ) ;
#187 = CC_DESIGN_PERSON_AND_ORGANIZATION_ASSIGNMENT ( #227, #55, ( #47 ) ) ;
#188 = PERSON_AND_ORGANIZATION ( #201, #183 ) ;
#189 = DIRECTION ( 'NONE',  ( -3.491481338843133355E-15, 1.224913660227414450E-16, -1.000000000000000000 ) ) ;
#190 = PERSON_AND_ORGANIZATION ( #201, #183 ) ;
#191 = DIRECTION ( 'NONE',  ( 0.0000000000000000000, 1.000000000000000000, 0.0000000000000000000 ) ) ;
#192 = FACE_OUTER_BOUND ( 'NONE', #205, .T. ) ;
#193 = ORIENTED_EDGE ( 'NONE', *, *, #10, .F. ) ;
#194 = DIRECTION ( 'NONE',  ( -4.275831445896958607E-31, -1.000000000000000000, -1.224646799147353207E-16 ) ) ;
#195 = PERSON_AND_ORGANIZATION ( #201, #183 ) ;
#196 = CARTESIAN_POINT ( 'NONE',  ( 4.172320199917544423E-13, 7.999999999999984901, 119.5000000000000000 ) ) ;
#197 = DIRECTION ( 'NONE',  ( 3.491481338843133355E-15, -1.224913660227414450E-16, 1.000000000000000000 ) ) ;
#198 = APPROVAL ( #80, 'UNSPECIFIED' ) ;
#199 = VERTEX_POINT ( 'NONE', #200 ) ;
#200 = CARTESIAN_POINT ( 'NONE',  ( 2.513866563967056016E-13, -8.000000000000015987, 72.00000000000000000 ) ) ;
#201 = PERSON ( 'UNSPECIFIED', 'UNSPECIFIED', 'UNSPECIFIED', ('UNSPECIFIED'), ('UNSPECIFIED'), ('UNSPECIFIED') ) ;
#202 = EDGE_CURVE ( 'NONE', #23, #23, #217, .T. ) ;
#203 = EDGE_LOOP ( 'NONE', ( #140 ) ) ;
#204 = PERSON_AND_ORGANIZATION ( #201, #183 ) ;
#205 = EDGE_LOOP ( 'NONE', ( #242 ) ) ;
#206 = PERSON_AND_ORGANIZATION_ROLE ( 'design_supplier' ) ;
#207 = PRODUCT ( '49285', '49285', '', ( #180 ) ) ;
#208 = ADVANCED_FACE ( 'NONE', ( #225 ), #111, .F. ) ;
#209 = APPROVAL_PERSON_ORGANIZATION ( #204, #138, #120 ) ;
#210 = COORDINATED_UNIVERSAL_TIME_OFFSET ( 1, 0, .AHEAD. ) ;
#211 = FACE_OUTER_BOUND ( 'NONE', #203, .T. ) ;
#212 = PRODUCT_DEFINITION_SHAPE ( 'NONE', 'NONE',  #47 ) ;
#213 = CARTESIAN_POINT ( 'NONE',  ( 4.172320199917544423E-13, -1.463452924981086914E-14, 119.5000000000000000 ) ) ;
#214 = ORIENTED_EDGE ( 'NONE', *, *, #29, .T. ) ;
#215 = CARTESIAN_POINT ( 'NONE',  ( 4.189777606611760026E-13, 5.624099184981943587E-32, 120.0000000000000000 ) ) ;
#216 = APPROVAL ( #185, 'UNSPECIFIED' ) ;
#217 = CIRCLE ( 'NONE', #13, 7.999999999999998224 ) ;
#218 = CC_DESIGN_SECURITY_CLASSIFICATION ( #106, ( #139 ) ) ;
#219 = VERTEX_POINT ( 'NONE', #26 ) ;
#220 = DIRECTION ( 'NONE',  ( -3.491481338843133355E-15, 1.224646799147353207E-16, -1.000000000000000000 ) ) ;
#221 = LOCAL_TIME ( 14, 3, 59.00000000000000000, #39 ) ;
#222 = EDGE_LOOP ( 'NONE', ( #241 ) ) ;
#223 = AXIS2_PLACEMENT_3D ( 'NONE', #234, #220, #63 ) ;
#224 = DIRECTION ( 'NONE',  ( -3.491481338843133355E-15, 1.224646799147353207E-16, -1.000000000000000000 ) ) ;
#225 = FACE_OUTER_BOUND ( 'NONE', #72, .T. ) ;
#226 = EDGE_LOOP ( 'NONE', ( #164 ) ) ;
#227 = PERSON_AND_ORGANIZATION ( #201, #183 ) ;
#228 = CARTESIAN_POINT ( 'NONE',  ( 2.513866563967056016E-13, -8.819378353637384431E-15, 72.00000000000000000 ) ) ;
#229 = SHAPE_DEFINITION_REPRESENTATION ( #212, #32 ) ;
#230 = CARTESIAN_POINT ( 'NONE',  ( 4.189777606611760026E-13, -1.469576158976823671E-14, 120.0000000000000000 ) ) ;
#231 = CALENDAR_DATE ( 2021, 15, 11 ) ;
#232 = CIRCLE ( 'NONE', #186, 8.000000000000007105 ) ;
#233 = AXIS2_PLACEMENT_3D ( 'NONE', #64, #117, #5 ) ;
#234 = CARTESIAN_POINT ( 'NONE',  ( 0.0000000000000000000, 0.0000000000000000000, 0.0000000000000000000 ) ) ;
#235 = ADVANCED_FACE ( 'NONE', ( #96, #82 ), #236, .T. ) ;
#236 = CYLINDRICAL_SURFACE ( 'NONE', #45, 7.800000000000001599 ) ;
#237 = ADVANCED_FACE ( 'NONE', ( #159 ), #121, .T. ) ;
#238 = ORIENTED_EDGE ( 'NONE', *, *, #101, .F. ) ;
#239 = ADVANCED_FACE ( 'NONE', ( #116, #181 ), #136, .T. ) ;
#240 = ORIENTED_EDGE ( 'NONE', *, *, #202, .F. ) ;
#241 = ORIENTED_EDGE ( 'NONE', *, *, #29, .F. ) ;
#242 = ORIENTED_EDGE ( 'NONE', *, *, #104, .T. ) ;
#243 = DIRECTION ( 'NONE',  ( 3.491481338843133355E-15, -1.224913660227414450E-16, 1.000000000000000000 ) ) ;
ENDSEC;
END-ISO-10303-21;
