ISO-10303-21;
HEADER;
FILE_DESCRIPTION (( 'STEP AP203' ),
    '1' );
FILE_NAME ('49284.step',
    '2021-11-15T13:03:58',
    ( '' ),
    ( '' ),
    'SwSTEP 2.0',
    'SolidWorks 2019',
    '' );
FILE_SCHEMA (( 'CONFIG_CONTROL_DESIGN' ));
ENDSEC;

DATA;
#1 = CARTESIAN_POINT ( 'NONE',  ( 3.474023932148917752E-13, -1.218523565151616460E-14, 99.50000000000000000 ) ) ;
#2 = CALENDAR_DATE ( 2021, 15, 11 ) ;
#3 = AXIS2_PLACEMENT_3D ( 'NONE', #100, #212, #37 ) ;
#4 = CARTESIAN_POINT ( 'NONE',  ( -1.282749433769087757E-30, 4.499279347985572824E-32, -3.673940397442059868E-16 ) ) ;
#5 = PLANE ( 'NONE',  #107 ) ;
#6 = CC_DESIGN_PERSON_AND_ORGANIZATION_ASSIGNMENT ( #241, #130, ( #235 ) ) ;
#7 = AXIS2_PLACEMENT_3D ( 'NONE', #46, #181, #215 ) ;
#8 = ORIENTED_EDGE ( 'NONE', *, *, #179, .F. ) ;
#9 = CC_DESIGN_DATE_AND_TIME_ASSIGNMENT ( #168, #92, ( #230 ) ) ;
#10 = DIRECTION ( 'NONE',  ( 3.491481338843133355E-15, -1.224646799147353207E-16, 1.000000000000000000 ) ) ;
#11 = DIRECTION ( 'NONE',  ( 0.0000000000000000000, 0.0000000000000000000, 1.000000000000000000 ) ) ;
#12 = DIRECTION ( 'NONE',  ( 0.0000000000000000000, 1.000000000000000000, 0.0000000000000000000 ) ) ;
#13 = AXIS2_PLACEMENT_3D ( 'NONE', #34, #133, #229 ) ;
#14 = CC_DESIGN_PERSON_AND_ORGANIZATION_ASSIGNMENT ( #114, #15, ( #152 ) ) ;
#15 = PERSON_AND_ORGANIZATION_ROLE ( 'classification_officer' ) ;
#16 = UNCERTAINTY_MEASURE_WITH_UNIT (LENGTH_MEASURE( 1.000000000000000082E-05 ), #185, 'distance_accuracy_value', 'NONE');
#17 = AXIS2_PLACEMENT_3D ( 'NONE', #41, #27, #172 ) ;
#18 = PERSON_AND_ORGANIZATION_ROLE ( 'creator' ) ;
#19 = PERSON_AND_ORGANIZATION ( #102, #67 ) ;
#20 = DATE_AND_TIME ( #206, #225 ) ;
#21 = CARTESIAN_POINT ( 'NONE',  ( 3.491481338843133355E-13, 4.124339402320089811E-32, 100.0000000000000000 ) ) ;
#22 = FACE_OUTER_BOUND ( 'NONE', #195, .T. ) ;
#23 = APPROVAL ( #116, 'UNSPECIFIED' ) ;
#24 = APPROVAL_PERSON_ORGANIZATION ( #19, #44, #36 ) ;
#25 = DIRECTION ( 'NONE',  ( 4.275831445896958607E-31, 1.000000000000000000, 1.224646799147353207E-16 ) ) ;
#26 = FACE_OUTER_BOUND ( 'NONE', #236, .T. ) ;
#27 = DIRECTION ( 'NONE',  ( -3.491481338843133355E-15, 1.224646799147353207E-16, -1.000000000000000000 ) ) ;
#28 = APPLICATION_CONTEXT ( 'configuration controlled 3d designs of mechanical parts and assemblies' ) ;
#29 = LOCAL_TIME ( 14, 3, 58.00000000000000000, #222 ) ;
#30 = EDGE_CURVE ( 'NONE', #124, #124, #211, .T. ) ;
#31 = ORIENTED_EDGE ( 'NONE', *, *, #35, .T. ) ;
#32 = DATE_AND_TIME ( #174, #99 ) ;
#33 = PERSON_AND_ORGANIZATION ( #102, #67 ) ;
#34 = CARTESIAN_POINT ( 'NONE',  ( 0.0000000000000000000, 0.0000000000000000000, 0.0000000000000000000 ) ) ;
#35 = EDGE_CURVE ( 'NONE', #200, #200, #119, .T. ) ;
#36 = APPROVAL_ROLE ( '' ) ;
#37 = DIRECTION ( 'NONE',  ( 0.0000000000000000000, -1.000000000000000000, 0.0000000000000000000 ) ) ;
#38 = AXIS2_PLACEMENT_3D ( 'NONE', #194, #159, #177 ) ;
#39 = PLANE ( 'NONE',  #216 ) ;
#40 = PLANE ( 'NONE',  #165 ) ;
#41 = CARTESIAN_POINT ( 'NONE',  ( 0.0000000000000000000, 0.0000000000000000000, 0.0000000000000000000 ) ) ;
#42 = CARTESIAN_POINT ( 'NONE',  ( 1.920314736363723219E-13, 5.799999999999994493, 54.99999999999999289 ) ) ;
#43 = CLOSED_SHELL ( 'NONE', ( #233, #227, #74, #60, #210, #89 ) ) ;
#44 = APPROVAL ( #52, 'UNSPECIFIED' ) ;
#45 = ADVANCED_BREP_SHAPE_REPRESENTATION ( '49284', ( #58, #132, #59 ), #48 ) ;
#46 = CARTESIAN_POINT ( 'NONE',  ( 0.0000000000000000000, 0.0000000000000000000, 0.0000000000000000000 ) ) ;
#47 = CARTESIAN_POINT ( 'NONE',  ( 4.189777606611760026E-14, -1.469896392272897339E-15, 12.00000000000000000 ) ) ;
#48 =( GEOMETRIC_REPRESENTATION_CONTEXT ( 3 ) GLOBAL_UNCERTAINTY_ASSIGNED_CONTEXT ( ( #16 ) ) GLOBAL_UNIT_ASSIGNED_CONTEXT ( ( #185, #143, #104 ) ) REPRESENTATION_CONTEXT ( 'NONE', 'WORKASPACE' ) );
#49 = APPLICATION_PROTOCOL_DEFINITION ( 'international standard', 'config_control_design', 1994, #28 ) ;
#50 = EDGE_LOOP ( 'NONE', ( #31 ) ) ;
#51 = DIRECTION ( 'NONE',  ( 1.000000000000000000, 0.0000000000000000000, 0.0000000000000000000 ) ) ;
#52 = APPROVAL_STATUS ( 'not_yet_approved' ) ;
#53 = LOCAL_TIME ( 14, 3, 58.00000000000000000, #191 ) ;
#54 = DATE_AND_TIME ( #2, #53 ) ;
#55 = CARTESIAN_POINT ( 'NONE',  ( -2.565498867538175514E-30, 8.998558695971145647E-32, -7.347880794884119736E-16 ) ) ;
#56 = DIRECTION ( 'NONE',  ( 0.0000000000000000000, 1.000000000000000000, 0.0000000000000000000 ) ) ;
#57 = EDGE_LOOP ( 'NONE', ( #97 ) ) ;
#58 = MANIFOLD_SOLID_BREP ( 'Corps-Déplacer/Copier1[1]', #43 ) ;
#59 = AXIS2_PLACEMENT_3D ( 'NONE', #180, #11, #51 ) ;
#60 = ADVANCED_FACE ( 'NONE', ( #26, #64 ), #136, .T. ) ;
#61 = PRODUCT_RELATED_PRODUCT_CATEGORY ( 'detail', '', ( #228 ) ) ;
#62 = DIRECTION ( 'NONE',  ( -3.491481338843133355E-15, 1.224646799147353207E-16, -1.000000000000000000 ) ) ;
#63 = AXIS2_PLACEMENT_3D ( 'NONE', #1, #75, #221 ) ;
#64 = FACE_OUTER_BOUND ( 'NONE', #192, .T. ) ;
#65 = CC_DESIGN_PERSON_AND_ORGANIZATION_ASSIGNMENT ( #218, #187, ( #228 ) ) ;
#66 = CARTESIAN_POINT ( 'NONE',  ( 3.474023932148917752E-13, -1.218523565151616460E-14, 99.50000000000000000 ) ) ;
#67 = ORGANIZATION ( 'UNSPECIFIED', 'UNSPECIFIED', '' ) ;
#68 = ORIENTED_EDGE ( 'NONE', *, *, #118, .T. ) ;
#69 = CIRCLE ( 'NONE', #139, 5.800000000000001599 ) ;
#70 = APPLICATION_PROTOCOL_DEFINITION ( 'international standard', 'config_control_design', 1994, #109 ) ;
#71 = EDGE_LOOP ( 'NONE', ( #110 ) ) ;
#72 = MECHANICAL_CONTEXT ( 'NONE', #28, 'mechanical' ) ;
#73 = COORDINATED_UNIVERSAL_TIME_OFFSET ( 1, 0, .AHEAD. ) ;
#74 = ADVANCED_FACE ( 'NONE', ( #123 ), #39, .F. ) ;
#75 = DIRECTION ( 'NONE',  ( -3.491481338843133355E-15, 1.224646799147353207E-16, -1.000000000000000000 ) ) ;
#76 = SECURITY_CLASSIFICATION_LEVEL ( 'unclassified' ) ;
#77 = DIRECTION ( 'NONE',  ( 3.491481338843133355E-15, -1.224913660227414450E-16, 1.000000000000000000 ) ) ;
#78 = FACE_OUTER_BOUND ( 'NONE', #50, .T. ) ;
#79 = AXIS2_PLACEMENT_3D ( 'NONE', #42, #83, #161 ) ;
#80 = EDGE_LOOP ( 'NONE', ( #91 ) ) ;
#81 = CARTESIAN_POINT ( 'NONE',  ( 1.920314736363723472E-13, -6.737025131250779818E-15, 55.00000000000000000 ) ) ;
#82 = DIRECTION ( 'NONE',  ( 4.275831445896959482E-31, 1.000000000000000000, 1.224646799147353207E-16 ) ) ;
#83 = DIRECTION ( 'NONE',  ( -3.491481338843133355E-15, 1.224913660227414450E-16, -1.000000000000000000 ) ) ;
#84 = CARTESIAN_POINT ( 'NONE',  ( 1.920314736363723472E-13, -5.800000000000008704, 55.00000000000000000 ) ) ;
#85 = CIRCLE ( 'NONE', #3, 6.000000000000005329 ) ;
#86 = FACE_BOUND ( 'NONE', #169, .T. ) ;
#87 = EDGE_LOOP ( 'NONE', ( #68 ) ) ;
#88 = FACE_OUTER_BOUND ( 'NONE', #71, .T. ) ;
#89 = ADVANCED_FACE ( 'NONE', ( #22 ), #5, .F. ) ;
#90 = COORDINATED_UNIVERSAL_TIME_OFFSET ( 1, 0, .AHEAD. ) ;
#91 = ORIENTED_EDGE ( 'NONE', *, *, #158, .F. ) ;
#92 = DATE_TIME_ROLE ( 'creation_date' ) ;
#93 = EDGE_LOOP ( 'NONE', ( #190 ) ) ;
#94 = PERSON_AND_ORGANIZATION_ROLE ( 'creator' ) ;
#95 = DIRECTION ( 'NONE',  ( -4.275831445896958607E-31, -1.000000000000000000, -1.224646799147353207E-16 ) ) ;
#96 = AXIS2_PLACEMENT_3D ( 'NONE', #47, #126, #166 ) ;
#97 = ORIENTED_EDGE ( 'NONE', *, *, #35, .F. ) ;
#98 = LOCAL_TIME ( 14, 3, 58.00000000000000000, #90 ) ;
#99 = LOCAL_TIME ( 14, 3, 58.00000000000000000, #186 ) ;
#100 = CARTESIAN_POINT ( 'NONE',  ( 1.920314736363723219E-13, -6.737025131250779029E-15, 54.99999999999999289 ) ) ;
#101 = PLANE ( 'NONE',  #103 ) ;
#102 = PERSON ( 'UNSPECIFIED', 'UNSPECIFIED', 'UNSPECIFIED', ('UNSPECIFIED'), ('UNSPECIFIED'), ('UNSPECIFIED') ) ;
#103 = AXIS2_PLACEMENT_3D ( 'NONE', #117, #10, #175 ) ;
#104 =( NAMED_UNIT ( * ) SI_UNIT ( $, .STERADIAN. ) SOLID_ANGLE_UNIT ( ) );
#105 = APPROVAL ( #135, 'UNSPECIFIED' ) ;
#106 = FACE_BOUND ( 'NONE', #205, .T. ) ;
#107 = AXIS2_PLACEMENT_3D ( 'NONE', #196, #208, #95 ) ;
#108 = VERTEX_POINT ( 'NONE', #198 ) ;
#109 = APPLICATION_CONTEXT ( 'configuration controlled 3d designs of mechanical parts and assemblies' ) ;
#110 = ORIENTED_EDGE ( 'NONE', *, *, #158, .T. ) ;
#111 = APPROVAL_DATE_TIME ( #54, #44 ) ;
#112 = CONICAL_SURFACE ( 'NONE', #201, 6.000000000000000000, 0.7853981633974482790 ) ;
#113 = ADVANCED_FACE ( 'NONE', ( #141 ), #40, .T. ) ;
#114 = PERSON_AND_ORGANIZATION ( #102, #67 ) ;
#115 = ORIENTED_EDGE ( 'NONE', *, *, #242, .T. ) ;
#116 = APPROVAL_STATUS ( 'not_yet_approved' ) ;
#117 = CARTESIAN_POINT ( 'NONE',  ( 4.189777606611760026E-14, 4.499279347985570634E-32, 12.00000000000000000 ) ) ;
#118 = EDGE_CURVE ( 'NONE', #237, #237, #85, .T. ) ;
#119 = CIRCLE ( 'NONE', #163, 6.000000000000000000 ) ;
#120 = DIRECTION ( 'NONE',  ( -3.491481338843133355E-15, 1.224646799147353207E-16, -1.000000000000000000 ) ) ;
#121 = EDGE_CURVE ( 'NONE', #234, #234, #69, .T. ) ;
#122 = FACE_OUTER_BOUND ( 'NONE', #57, .T. ) ;
#123 = FACE_OUTER_BOUND ( 'NONE', #147, .T. ) ;
#124 = VERTEX_POINT ( 'NONE', #125 ) ;
#125 = CARTESIAN_POINT ( 'NONE',  ( 3.491481338843133355E-13, 5.499999999999987566, 100.0000000000000000 ) ) ;
#126 = DIRECTION ( 'NONE',  ( 3.491481338843133355E-15, -1.224913660227414450E-16, 1.000000000000000000 ) ) ;
#127 = CARTESIAN_POINT ( 'NONE',  ( 1.920314736363723219E-13, -6.000000000000012434, 54.99999999999999289 ) ) ;
#128 = SHAPE_DEFINITION_REPRESENTATION ( #138, #45 ) ;
#129 = CC_DESIGN_APPROVAL ( #44, ( #235 ) ) ;
#130 = PERSON_AND_ORGANIZATION_ROLE ( 'design_supplier' ) ;
#131 = DIRECTION ( 'NONE',  ( -3.491481338843133355E-15, 1.224646799147353207E-16, -1.000000000000000000 ) ) ;
#132 = MANIFOLD_SOLID_BREP ( 'Corps-Déplacer/Copier1[2]', #188 ) ;
#133 = DIRECTION ( 'NONE',  ( 3.491481338843133355E-15, -1.224913660227414450E-16, 1.000000000000000000 ) ) ;
#134 = ADVANCED_FACE ( 'NONE', ( #122 ), #101, .T. ) ;
#135 = APPROVAL_STATUS ( 'not_yet_approved' ) ;
#136 = CYLINDRICAL_SURFACE ( 'NONE', #13, 5.800000000000001599 ) ;
#137 = CIRCLE ( 'NONE', #96, 5.800000000000001599 ) ;
#138 = PRODUCT_DEFINITION_SHAPE ( 'NONE', 'NONE',  #230 ) ;
#139 = AXIS2_PLACEMENT_3D ( 'NONE', #81, #77, #178 ) ;
#140 = ORIENTED_EDGE ( 'NONE', *, *, #30, .T. ) ;
#141 = FACE_OUTER_BOUND ( 'NONE', #224, .T. ) ;
#142 = CYLINDRICAL_SURFACE ( 'NONE', #7, 6.000000000000000000 ) ;
#143 =( NAMED_UNIT ( * ) PLANE_ANGLE_UNIT ( ) SI_UNIT ( $, .RADIAN. ) );
#144 = CARTESIAN_POINT ( 'NONE',  ( 4.189777606611760026E-14, 5.999999999999998224, 12.00000000000000000 ) ) ;
#145 = EDGE_LOOP ( 'NONE', ( #8 ) ) ;
#146 = FACE_OUTER_BOUND ( 'NONE', #87, .T. ) ;
#147 = EDGE_LOOP ( 'NONE', ( #203 ) ) ;
#148 = PERSON_AND_ORGANIZATION ( #102, #67 ) ;
#149 = ADVANCED_FACE ( 'NONE', ( #78, #231 ), #213, .T. ) ;
#150 = APPROVAL_ROLE ( '' ) ;
#151 = ORIENTED_EDGE ( 'NONE', *, *, #179, .T. ) ;
#152 = SECURITY_CLASSIFICATION ( '', '', #76 ) ;
#153 = PERSON_AND_ORGANIZATION ( #102, #67 ) ;
#154 = CARTESIAN_POINT ( 'NONE',  ( 4.189777606611760026E-14, -1.469576158976823947E-15, 12.00000000000000000 ) ) ;
#155 = APPROVAL_DATE_TIME ( #173, #105 ) ;
#156 = DIRECTION ( 'NONE',  ( 4.275831445896958607E-31, 1.000000000000000000, 1.224646799147353207E-16 ) ) ;
#157 = AXIS2_PLACEMENT_3D ( 'NONE', #55, #131, #82 ) ;
#158 = EDGE_CURVE ( 'NONE', #199, #199, #209, .T. ) ;
#159 = DIRECTION ( 'NONE',  ( -3.491481338843133355E-15, 1.224646799147353207E-16, -1.000000000000000000 ) ) ;
#160 = ORIENTED_EDGE ( 'NONE', *, *, #242, .F. ) ;
#161 = DIRECTION ( 'NONE',  ( 4.276763186378056353E-31, 1.000000000000000000, 1.224913660227414450E-16 ) ) ;
#162 = FACE_OUTER_BOUND ( 'NONE', #93, .T. ) ;
#163 = AXIS2_PLACEMENT_3D ( 'NONE', #154, #223, #56 ) ;
#164 = DIRECTION ( 'NONE',  ( -3.491481338843133355E-15, 1.224646799147353207E-16, -1.000000000000000000 ) ) ;
#165 = AXIS2_PLACEMENT_3D ( 'NONE', #4, #62, #25 ) ;
#166 = DIRECTION ( 'NONE',  ( 0.0000000000000000000, -1.000000000000000000, 0.0000000000000000000 ) ) ;
#167 = CARTESIAN_POINT ( 'NONE',  ( 3.474023932148917752E-13, 5.999999999999987566, 99.50000000000000000 ) ) ;
#168 = DATE_AND_TIME ( #220, #98 ) ;
#169 = EDGE_LOOP ( 'NONE', ( #140 ) ) ;
#170 = CC_DESIGN_APPROVAL ( #105, ( #152 ) ) ;
#171 = PERSON_AND_ORGANIZATION ( #102, #67 ) ;
#172 = DIRECTION ( 'NONE',  ( 4.275831445896959482E-31, 1.000000000000000000, 1.224646799147353207E-16 ) ) ;
#173 = DATE_AND_TIME ( #219, #29 ) ;
#174 = CALENDAR_DATE ( 2021, 15, 11 ) ;
#175 = DIRECTION ( 'NONE',  ( -4.275831445896958607E-31, -1.000000000000000000, -1.224646799147353207E-16 ) ) ;
#176 = CC_DESIGN_APPROVAL ( #23, ( #230 ) ) ;
#177 = DIRECTION ( 'NONE',  ( 0.0000000000000000000, 1.000000000000000000, 0.0000000000000000000 ) ) ;
#178 = DIRECTION ( 'NONE',  ( 0.0000000000000000000, -1.000000000000000000, 0.0000000000000000000 ) ) ;
#179 = EDGE_CURVE ( 'NONE', #108, #108, #239, .T. ) ;
#180 = CARTESIAN_POINT ( 'NONE',  ( 0.0000000000000000000, 0.0000000000000000000, 0.0000000000000000000 ) ) ;
#181 = DIRECTION ( 'NONE',  ( -3.491481338843133355E-15, 1.224646799147353207E-16, -1.000000000000000000 ) ) ;
#182 = PLANE ( 'NONE',  #79 ) ;
#183 = CC_DESIGN_SECURITY_CLASSIFICATION ( #152, ( #235 ) ) ;
#184 = CC_DESIGN_DATE_AND_TIME_ASSIGNMENT ( #32, #204, ( #152 ) ) ;
#185 =( LENGTH_UNIT ( ) NAMED_UNIT ( * ) SI_UNIT ( .MILLI., .METRE. ) );
#186 = COORDINATED_UNIVERSAL_TIME_OFFSET ( 1, 0, .AHEAD. ) ;
#187 = PERSON_AND_ORGANIZATION_ROLE ( 'design_owner' ) ;
#188 = CLOSED_SHELL ( 'NONE', ( #113, #149, #134 ) ) ;
#189 = APPROVAL_ROLE ( '' ) ;
#190 = ORIENTED_EDGE ( 'NONE', *, *, #118, .F. ) ;
#191 = COORDINATED_UNIVERSAL_TIME_OFFSET ( 1, 0, .AHEAD. ) ;
#192 = EDGE_LOOP ( 'NONE', ( #217 ) ) ;
#193 = CC_DESIGN_PERSON_AND_ORGANIZATION_ASSIGNMENT ( #33, #94, ( #230 ) ) ;
#194 = CARTESIAN_POINT ( 'NONE',  ( 3.491481338843133355E-13, -1.224646799147353217E-14, 100.0000000000000000 ) ) ;
#195 = EDGE_LOOP ( 'NONE', ( #160 ) ) ;
#196 = CARTESIAN_POINT ( 'NONE',  ( 4.189777606611760026E-14, 4.499279347985570634E-32, 12.00000000000000000 ) ) ;
#197 = APPROVAL_PERSON_ORGANIZATION ( #148, #23, #150 ) ;
#198 = CARTESIAN_POINT ( 'NONE',  ( 0.0000000000000000000, 6.000000000000000000, 0.0000000000000000000 ) ) ;
#199 = VERTEX_POINT ( 'NONE', #167 ) ;
#200 = VERTEX_POINT ( 'NONE', #144 ) ;
#201 = AXIS2_PLACEMENT_3D ( 'NONE', #66, #164, #12 ) ;
#202 = VERTEX_POINT ( 'NONE', #238 ) ;
#203 = ORIENTED_EDGE ( 'NONE', *, *, #30, .F. ) ;
#204 = DATE_TIME_ROLE ( 'classification_date' ) ;
#205 = EDGE_LOOP ( 'NONE', ( #240 ) ) ;
#206 = CALENDAR_DATE ( 2021, 15, 11 ) ;
#207 = CC_DESIGN_PERSON_AND_ORGANIZATION_ASSIGNMENT ( #171, #18, ( #235 ) ) ;
#208 = DIRECTION ( 'NONE',  ( 3.491481338843133355E-15, -1.224646799147353207E-16, 1.000000000000000000 ) ) ;
#209 = CIRCLE ( 'NONE', #63, 6.000000000000000000 ) ;
#210 = ADVANCED_FACE ( 'NONE', ( #106, #162 ), #182, .T. ) ;
#211 = CIRCLE ( 'NONE', #38, 5.500000000000000000 ) ;
#212 = DIRECTION ( 'NONE',  ( 3.491481338843133355E-15, -1.224913660227414450E-16, 1.000000000000000000 ) ) ;
#213 = CYLINDRICAL_SURFACE ( 'NONE', #17, 6.000000000000000000 ) ;
#214 = DESIGN_CONTEXT ( 'detailed design', #109, 'design' ) ;
#215 = DIRECTION ( 'NONE',  ( 4.275831445896959482E-31, 1.000000000000000000, 1.224646799147353207E-16 ) ) ;
#216 = AXIS2_PLACEMENT_3D ( 'NONE', #21, #120, #156 ) ;
#217 = ORIENTED_EDGE ( 'NONE', *, *, #121, .F. ) ;
#218 = PERSON_AND_ORGANIZATION ( #102, #67 ) ;
#219 = CALENDAR_DATE ( 2021, 15, 11 ) ;
#220 = CALENDAR_DATE ( 2021, 15, 11 ) ;
#221 = DIRECTION ( 'NONE',  ( 0.0000000000000000000, 1.000000000000000000, 0.0000000000000000000 ) ) ;
#222 = COORDINATED_UNIVERSAL_TIME_OFFSET ( 1, 0, .AHEAD. ) ;
#223 = DIRECTION ( 'NONE',  ( -3.491481338843133355E-15, 1.224646799147353207E-16, -1.000000000000000000 ) ) ;
#224 = EDGE_LOOP ( 'NONE', ( #151 ) ) ;
#225 = LOCAL_TIME ( 14, 3, 58.00000000000000000, #73 ) ;
#226 = APPROVAL_PERSON_ORGANIZATION ( #153, #105, #189 ) ;
#227 = ADVANCED_FACE ( 'NONE', ( #86, #232 ), #112, .T. ) ;
#228 = PRODUCT ( '49284', '49284', '', ( #72 ) ) ;
#229 = DIRECTION ( 'NONE',  ( -4.276763186378056353E-31, -1.000000000000000000, -1.224913660227414450E-16 ) ) ;
#230 = PRODUCT_DEFINITION ( 'UNKNOWN', '', #235, #214 ) ;
#231 = FACE_OUTER_BOUND ( 'NONE', #145, .T. ) ;
#232 = FACE_OUTER_BOUND ( 'NONE', #80, .T. ) ;
#233 = ADVANCED_FACE ( 'NONE', ( #88, #146 ), #142, .T. ) ;
#234 = VERTEX_POINT ( 'NONE', #84 ) ;
#235 = PRODUCT_DEFINITION_FORMATION_WITH_SPECIFIED_SOURCE ( 'ANY', '', #228, .NOT_KNOWN. ) ;
#236 = EDGE_LOOP ( 'NONE', ( #115 ) ) ;
#237 = VERTEX_POINT ( 'NONE', #127 ) ;
#238 = CARTESIAN_POINT ( 'NONE',  ( 4.189777606611760026E-14, -5.800000000000003375, 12.00000000000000000 ) ) ;
#239 = CIRCLE ( 'NONE', #157, 6.000000000000000000 ) ;
#240 = ORIENTED_EDGE ( 'NONE', *, *, #121, .T. ) ;
#241 = PERSON_AND_ORGANIZATION ( #102, #67 ) ;
#242 = EDGE_CURVE ( 'NONE', #202, #202, #137, .T. ) ;
#243 = APPROVAL_DATE_TIME ( #20, #23 ) ;
ENDSEC;
END-ISO-10303-21;
