ISO-10303-21;
HEADER;
FILE_DESCRIPTION (( 'STEP AP203' ),
    '1' );
FILE_NAME ('49283.step',
    '2021-11-15T13:03:57',
    ( '' ),
    ( '' ),
    'SwSTEP 2.0',
    'SolidWorks 2019',
    '' );
FILE_SCHEMA (( 'CONFIG_CONTROL_DESIGN' ));
ENDSEC;

DATA;
#1 = MECHANICAL_CONTEXT ( 'NONE', #189, 'mechanical' ) ;
#2 = PERSON_AND_ORGANIZATION ( #191, #58 ) ;
#3 = CALENDAR_DATE ( 2021, 15, 11 ) ;
#4 = DIRECTION ( 'NONE',  ( 0.0000000000000000000, -1.000000000000000000, 0.0000000000000000000 ) ) ;
#5 = CARTESIAN_POINT ( 'NONE',  ( 1.745740669421566678E-13, -6.124568301137072346E-15, 50.00000000000000000 ) ) ;
#6 = LOCAL_TIME ( 14, 3, 57.00000000000000000, #133 ) ;
#7 = ORIENTED_EDGE ( 'NONE', *, *, #207, .F. ) ;
#8 = CALENDAR_DATE ( 2021, 15, 11 ) ;
#9 = ORIENTED_EDGE ( 'NONE', *, *, #243, .T. ) ;
#10 = CARTESIAN_POINT ( 'NONE',  ( 3.491481338843133355E-14, 3.749399456654644020E-32, 10.00000000000000000 ) ) ;
#11 = AXIS2_PLACEMENT_3D ( 'NONE', #10, #156, #237 ) ;
#12 = DIRECTION ( 'NONE',  ( -4.275831445896959482E-31, -1.000000000000000000, -1.224646799147353454E-16 ) ) ;
#13 = CARTESIAN_POINT ( 'NONE',  ( 3.124875798264604164E-13, -1.096058885236881311E-14, 89.50000000000000000 ) ) ;
#14 = SHAPE_DEFINITION_REPRESENTATION ( #223, #233 ) ;
#15 = CARTESIAN_POINT ( 'NONE',  ( 3.491481338843133355E-14, -1.224646799147353454E-15, 10.00000000000000000 ) ) ;
#16 = CC_DESIGN_SECURITY_CLASSIFICATION ( #226, ( #118 ) ) ;
#17 = DESIGN_CONTEXT ( 'detailed design', #204, 'design' ) ;
#18 = VERTEX_POINT ( 'NONE', #102 ) ;
#19 = CARTESIAN_POINT ( 'NONE',  ( 3.491481338843133355E-14, -4.800000000000002487, 10.00000000000000000 ) ) ;
#20 = CALENDAR_DATE ( 2021, 15, 11 ) ;
#21 = APPROVAL_PERSON_ORGANIZATION ( #105, #124, #22 ) ;
#22 = APPROVAL_ROLE ( '' ) ;
#23 = ADVANCED_FACE ( 'NONE', ( #60 ), #129, .F. ) ;
#24 = ORIENTED_EDGE ( 'NONE', *, *, #84, .T. ) ;
#25 = LOCAL_TIME ( 14, 3, 57.00000000000000000, #182 ) ;
#26 = ORIENTED_EDGE ( 'NONE', *, *, #207, .T. ) ;
#27 = AXIS2_PLACEMENT_3D ( 'NONE', #178, #240, #12 ) ;
#28 = PLANE ( 'NONE',  #130 ) ;
#29 = APPROVAL_DATE_TIME ( #31, #235 ) ;
#30 = DIRECTION ( 'NONE',  ( 0.0000000000000000000, 1.000000000000000000, 0.0000000000000000000 ) ) ;
#31 = DATE_AND_TIME ( #8, #6 ) ;
#32 = AXIS2_PLACEMENT_3D ( 'NONE', #5, #232, #4 ) ;
#33 = CARTESIAN_POINT ( 'NONE',  ( -2.137915722948479478E-30, 7.498798913309291323E-32, -6.123233995736767268E-16 ) ) ;
#34 = EDGE_CURVE ( 'NONE', #18, #18, #108, .T. ) ;
#35 = FACE_OUTER_BOUND ( 'NONE', #80, .T. ) ;
#36 = DIRECTION ( 'NONE',  ( 4.275831445896958607E-31, 1.000000000000000000, 1.224646799147353454E-16 ) ) ;
#37 = PRODUCT_RELATED_PRODUCT_CATEGORY ( 'detail', '', ( #239 ) ) ;
#38 = AXIS2_PLACEMENT_3D ( 'NONE', #236, #64, #50 ) ;
#39 = COORDINATED_UNIVERSAL_TIME_OFFSET ( 1, 0, .AHEAD. ) ;
#40 = ADVANCED_FACE ( 'NONE', ( #229, #209 ), #46, .T. ) ;
#41 = APPROVAL_ROLE ( '' ) ;
#42 = VERTEX_POINT ( 'NONE', #123 ) ;
#43 = EDGE_LOOP ( 'NONE', ( #9 ) ) ;
#44 = CARTESIAN_POINT ( 'NONE',  ( 3.142333204958819767E-13, 3.374459510989164291E-32, 90.00000000000000000 ) ) ;
#45 = AXIS2_PLACEMENT_3D ( 'NONE', #212, #197, #49 ) ;
#46 = CYLINDRICAL_SURFACE ( 'NONE', #183, 4.800000000000000711 ) ;
#47 = PERSON_AND_ORGANIZATION_ROLE ( 'design_supplier' ) ;
#48 = FACE_OUTER_BOUND ( 'NONE', #111, .T. ) ;
#49 = DIRECTION ( 'NONE',  ( 4.275831445896958607E-31, 1.000000000000000000, 1.224646799147353454E-16 ) ) ;
#50 = DIRECTION ( 'NONE',  ( 0.0000000000000000000, -1.000000000000000000, 0.0000000000000000000 ) ) ;
#51 = AXIS2_PLACEMENT_3D ( 'NONE', #120, #200, #36 ) ;
#52 = DIRECTION ( 'NONE',  ( 0.0000000000000000000, -1.000000000000000000, 0.0000000000000000000 ) ) ;
#53 = CYLINDRICAL_SURFACE ( 'NONE', #51, 5.000000000000000000 ) ;
#54 = CALENDAR_DATE ( 2021, 15, 11 ) ;
#55 = VERTEX_POINT ( 'NONE', #128 ) ;
#56 = APPROVAL_STATUS ( 'not_yet_approved' ) ;
#57 = DATE_AND_TIME ( #20, #25 ) ;
#58 = ORGANIZATION ( 'UNSPECIFIED', 'UNSPECIFIED', '' ) ;
#59 = PRODUCT_DEFINITION ( 'UNKNOWN', '', #118, #17 ) ;
#60 = FACE_OUTER_BOUND ( 'NONE', #95, .T. ) ;
#61 = ADVANCED_FACE ( 'NONE', ( #196 ), #28, .T. ) ;
#62 = EDGE_LOOP ( 'NONE', ( #24 ) ) ;
#63 = APPROVAL_ROLE ( '' ) ;
#64 = DIRECTION ( 'NONE',  ( 3.491481338843133355E-15, -1.224913660227414450E-16, 1.000000000000000000 ) ) ;
#65 = DIRECTION ( 'NONE',  ( -3.491481338843133355E-15, 1.224646799147353454E-16, -1.000000000000000000 ) ) ;
#66 = DATE_TIME_ROLE ( 'classification_date' ) ;
#67 = FACE_BOUND ( 'NONE', #192, .T. ) ;
#68 = CONICAL_SURFACE ( 'NONE', #206, 5.000000000000000000, 0.7853981633974482790 ) ;
#69 = CARTESIAN_POINT ( 'NONE',  ( 3.124875798264604164E-13, -1.096058885236881311E-14, 89.50000000000000000 ) ) ;
#70 = CC_DESIGN_PERSON_AND_ORGANIZATION_ASSIGNMENT ( #98, #113, ( #226 ) ) ;
#71 = FACE_OUTER_BOUND ( 'NONE', #94, .T. ) ;
#72 =( NAMED_UNIT ( * ) PLANE_ANGLE_UNIT ( ) SI_UNIT ( $, .RADIAN. ) );
#73 = ADVANCED_FACE ( 'NONE', ( #67, #48 ), #68, .T. ) ;
#74 = CC_DESIGN_APPROVAL ( #103, ( #59 ) ) ;
#75 = APPROVAL_DATE_TIME ( #201, #103 ) ;
#76 = CC_DESIGN_DATE_AND_TIME_ASSIGNMENT ( #57, #164, ( #59 ) ) ;
#77 = EDGE_LOOP ( 'NONE', ( #146 ) ) ;
#78 = EDGE_LOOP ( 'NONE', ( #168 ) ) ;
#79 = LOCAL_TIME ( 14, 3, 57.00000000000000000, #153 ) ;
#80 = EDGE_LOOP ( 'NONE', ( #227 ) ) ;
#81 = EDGE_LOOP ( 'NONE', ( #186 ) ) ;
#82 = AXIS2_PLACEMENT_3D ( 'NONE', #138, #117, #52 ) ;
#83 = UNCERTAINTY_MEASURE_WITH_UNIT (LENGTH_MEASURE( 1.000000000000000082E-05 ), #205, 'distance_accuracy_value', 'NONE');
#84 = EDGE_CURVE ( 'NONE', #92, #92, #155, .T. ) ;
#85 = DIRECTION ( 'NONE',  ( 0.0000000000000000000, 1.000000000000000000, 0.0000000000000000000 ) ) ;
#86 = CIRCLE ( 'NONE', #139, 5.000000000000000000 ) ;
#87 = CARTESIAN_POINT ( 'NONE',  ( 3.142333204958819767E-13, -1.102182119232618069E-14, 90.00000000000000000 ) ) ;
#88 = VERTEX_POINT ( 'NONE', #162 ) ;
#89 = DIRECTION ( 'NONE',  ( 0.0000000000000000000, 0.0000000000000000000, 1.000000000000000000 ) ) ;
#90 = APPLICATION_PROTOCOL_DEFINITION ( 'international standard', 'config_control_design', 1994, #204 ) ;
#91 = COORDINATED_UNIVERSAL_TIME_OFFSET ( 1, 0, .AHEAD. ) ;
#92 = VERTEX_POINT ( 'NONE', #224 ) ;
#93 = CIRCLE ( 'NONE', #179, 5.000000000000000000 ) ;
#94 = EDGE_LOOP ( 'NONE', ( #151 ) ) ;
#95 = EDGE_LOOP ( 'NONE', ( #110 ) ) ;
#96 = PLANE ( 'NONE',  #11 ) ;
#97 = DIRECTION ( 'NONE',  ( 4.276763186378056353E-31, 1.000000000000000000, 1.224913660227414450E-16 ) ) ;
#98 = PERSON_AND_ORGANIZATION ( #191, #58 ) ;
#99 = DIRECTION ( 'NONE',  ( 0.0000000000000000000, 1.000000000000000000, 0.0000000000000000000 ) ) ;
#100 = CARTESIAN_POINT ( 'NONE',  ( -1.068957861474239739E-30, 3.749399456654645662E-32, -3.061616997868383634E-16 ) ) ;
#101 = AXIS2_PLACEMENT_3D ( 'NONE', #181, #89, #141 ) ;
#102 = CARTESIAN_POINT ( 'NONE',  ( 1.745740669421566678E-13, -5.000000000000011546, 50.00000000000000000 ) ) ;
#103 = APPROVAL ( #56, 'UNSPECIFIED' ) ;
#104 = CC_DESIGN_PERSON_AND_ORGANIZATION_ASSIGNMENT ( #208, #145, ( #118 ) ) ;
#105 = PERSON_AND_ORGANIZATION ( #191, #58 ) ;
#106 = ORIENTED_EDGE ( 'NONE', *, *, #243, .F. ) ;
#107 = ADVANCED_FACE ( 'NONE', ( #194, #35 ), #157, .T. ) ;
#108 = CIRCLE ( 'NONE', #32, 5.000000000000005329 ) ;
#109 = EDGE_CURVE ( 'NONE', #42, #42, #163, .T. ) ;
#110 = ORIENTED_EDGE ( 'NONE', *, *, #109, .F. ) ;
#111 = EDGE_LOOP ( 'NONE', ( #7 ) ) ;
#112 = APPROVAL_DATE_TIME ( #144, #124 ) ;
#113 = PERSON_AND_ORGANIZATION_ROLE ( 'classification_officer' ) ;
#114 = CC_DESIGN_APPROVAL ( #235, ( #226 ) ) ;
#115 = SECURITY_CLASSIFICATION_LEVEL ( 'unclassified' ) ;
#116 = DIRECTION ( 'NONE',  ( -3.491481338843133355E-15, 1.224646799147353454E-16, -1.000000000000000000 ) ) ;
#117 = DIRECTION ( 'NONE',  ( 3.491481338843133355E-15, -1.224913660227414450E-16, 1.000000000000000000 ) ) ;
#118 = PRODUCT_DEFINITION_FORMATION_WITH_SPECIFIED_SOURCE ( 'ANY', '', #239, .NOT_KNOWN. ) ;
#119 = DIRECTION ( 'NONE',  ( -3.491481338843133355E-15, 1.224913660227414450E-16, -1.000000000000000000 ) ) ;
#120 = CARTESIAN_POINT ( 'NONE',  ( 0.0000000000000000000, 0.0000000000000000000, 0.0000000000000000000 ) ) ;
#121 = APPROVAL_PERSON_ORGANIZATION ( #2, #103, #41 ) ;
#122 =( GEOMETRIC_REPRESENTATION_CONTEXT ( 3 ) GLOBAL_UNCERTAINTY_ASSIGNED_CONTEXT ( ( #83 ) ) GLOBAL_UNIT_ASSIGNED_CONTEXT ( ( #205, #72, #165 ) ) REPRESENTATION_CONTEXT ( 'NONE', 'WORKASPACE' ) );
#123 = CARTESIAN_POINT ( 'NONE',  ( 3.142333204958819767E-13, 4.499999999999988454, 90.00000000000000000 ) ) ;
#124 = APPROVAL ( #184, 'UNSPECIFIED' ) ;
#125 = CARTESIAN_POINT ( 'NONE',  ( 3.124875798264604164E-13, 4.999999999999988454, 89.50000000000000000 ) ) ;
#126 = PERSON_AND_ORGANIZATION ( #191, #58 ) ;
#127 = EDGE_CURVE ( 'NONE', #88, #88, #86, .T. ) ;
#128 = CARTESIAN_POINT ( 'NONE',  ( 0.0000000000000000000, 5.000000000000000000, 0.0000000000000000000 ) ) ;
#129 = PLANE ( 'NONE',  #221 ) ;
#130 = AXIS2_PLACEMENT_3D ( 'NONE', #100, #116, #173 ) ;
#131 = EDGE_LOOP ( 'NONE', ( #106 ) ) ;
#132 = CARTESIAN_POINT ( 'NONE',  ( 0.0000000000000000000, 0.0000000000000000000, 0.0000000000000000000 ) ) ;
#133 = COORDINATED_UNIVERSAL_TIME_OFFSET ( 1, 0, .AHEAD. ) ;
#134 = DIRECTION ( 'NONE',  ( 4.275831445896959482E-31, 1.000000000000000000, 1.224646799147353454E-16 ) ) ;
#135 = ORIENTED_EDGE ( 'NONE', *, *, #127, .F. ) ;
#136 = PERSON_AND_ORGANIZATION ( #191, #58 ) ;
#137 = DIRECTION ( 'NONE',  ( 0.0000000000000000000, 1.000000000000000000, 0.0000000000000000000 ) ) ;
#138 = CARTESIAN_POINT ( 'NONE',  ( 1.745740669421566678E-13, -6.124568301137072346E-15, 50.00000000000000000 ) ) ;
#139 = AXIS2_PLACEMENT_3D ( 'NONE', #15, #175, #85 ) ;
#140 = DIRECTION ( 'NONE',  ( 3.491481338843133355E-15, -1.224913660227414450E-16, 1.000000000000000000 ) ) ;
#141 = DIRECTION ( 'NONE',  ( 1.000000000000000000, 0.0000000000000000000, 0.0000000000000000000 ) ) ;
#142 = CC_DESIGN_PERSON_AND_ORGANIZATION_ASSIGNMENT ( #219, #222, ( #239 ) ) ;
#143 = DIRECTION ( 'NONE',  ( 4.275831445896958607E-31, 1.000000000000000000, 1.224646799147353454E-16 ) ) ;
#144 = DATE_AND_TIME ( #3, #150 ) ;
#145 = PERSON_AND_ORGANIZATION_ROLE ( 'creator' ) ;
#146 = ORIENTED_EDGE ( 'NONE', *, *, #228, .F. ) ;
#147 = ADVANCED_FACE ( 'NONE', ( #215 ), #159, .F. ) ;
#148 = CC_DESIGN_PERSON_AND_ORGANIZATION_ASSIGNMENT ( #126, #185, ( #59 ) ) ;
#149 = ORIENTED_EDGE ( 'NONE', *, *, #109, .T. ) ;
#150 = LOCAL_TIME ( 14, 3, 57.00000000000000000, #91 ) ;
#151 = ORIENTED_EDGE ( 'NONE', *, *, #34, .T. ) ;
#152 = EDGE_LOOP ( 'NONE', ( #135 ) ) ;
#153 = COORDINATED_UNIVERSAL_TIME_OFFSET ( 1, 0, .AHEAD. ) ;
#154 = DIRECTION ( 'NONE',  ( -3.491481338843133355E-15, 1.224646799147353454E-16, -1.000000000000000000 ) ) ;
#155 = CIRCLE ( 'NONE', #82, 4.800000000000000711 ) ;
#156 = DIRECTION ( 'NONE',  ( 3.491481338843133355E-15, -1.224646799147353454E-16, 1.000000000000000000 ) ) ;
#157 = PLANE ( 'NONE',  #241 ) ;
#158 = DATE_AND_TIME ( #211, #79 ) ;
#159 = PLANE ( 'NONE',  #27 ) ;
#160 = AXIS2_PLACEMENT_3D ( 'NONE', #69, #65, #137 ) ;
#161 = FACE_OUTER_BOUND ( 'NONE', #170, .T. ) ;
#162 = CARTESIAN_POINT ( 'NONE',  ( 3.491481338843133355E-14, 4.999999999999999112, 10.00000000000000000 ) ) ;
#163 = CIRCLE ( 'NONE', #202, 4.500000000000000000 ) ;
#164 = DATE_TIME_ROLE ( 'creation_date' ) ;
#165 =( NAMED_UNIT ( * ) SI_UNIT ( $, .STERADIAN. ) SOLID_ANGLE_UNIT ( ) );
#166 = VERTEX_POINT ( 'NONE', #125 ) ;
#167 = LOCAL_TIME ( 14, 3, 57.00000000000000000, #39 ) ;
#168 = ORIENTED_EDGE ( 'NONE', *, *, #228, .T. ) ;
#169 = ORIENTED_EDGE ( 'NONE', *, *, #127, .T. ) ;
#170 = EDGE_LOOP ( 'NONE', ( #169 ) ) ;
#171 = ADVANCED_FACE ( 'NONE', ( #176 ), #96, .T. ) ;
#172 = CLOSED_SHELL ( 'NONE', ( #234, #73, #23, #40, #107, #147 ) ) ;
#173 = DIRECTION ( 'NONE',  ( 4.275831445896959482E-31, 1.000000000000000000, 1.224646799147353454E-16 ) ) ;
#174 = PERSON_AND_ORGANIZATION ( #191, #58 ) ;
#175 = DIRECTION ( 'NONE',  ( -3.491481338843133355E-15, 1.224646799147353454E-16, -1.000000000000000000 ) ) ;
#176 = FACE_OUTER_BOUND ( 'NONE', #152, .T. ) ;
#177 = DIRECTION ( 'NONE',  ( -4.276763186378056353E-31, -1.000000000000000000, -1.224913660227414450E-16 ) ) ;
#178 = CARTESIAN_POINT ( 'NONE',  ( 3.491481338843133355E-14, 3.749399456654644020E-32, 10.00000000000000000 ) ) ;
#179 = AXIS2_PLACEMENT_3D ( 'NONE', #33, #180, #143 ) ;
#180 = DIRECTION ( 'NONE',  ( -3.491481338843133355E-15, 1.224646799147353454E-16, -1.000000000000000000 ) ) ;
#181 = CARTESIAN_POINT ( 'NONE',  ( 0.0000000000000000000, 0.0000000000000000000, 0.0000000000000000000 ) ) ;
#182 = COORDINATED_UNIVERSAL_TIME_OFFSET ( 1, 0, .AHEAD. ) ;
#183 = AXIS2_PLACEMENT_3D ( 'NONE', #132, #140, #177 ) ;
#184 = APPROVAL_STATUS ( 'not_yet_approved' ) ;
#185 = PERSON_AND_ORGANIZATION_ROLE ( 'creator' ) ;
#186 = ORIENTED_EDGE ( 'NONE', *, *, #84, .F. ) ;
#187 = CLOSED_SHELL ( 'NONE', ( #61, #230, #171 ) ) ;
#188 = DIRECTION ( 'NONE',  ( -3.491481338843133355E-15, 1.224646799147353454E-16, -1.000000000000000000 ) ) ;
#189 = APPLICATION_CONTEXT ( 'configuration controlled 3d designs of mechanical parts and assemblies' ) ;
#190 = EDGE_LOOP ( 'NONE', ( #26 ) ) ;
#191 = PERSON ( 'UNSPECIFIED', 'UNSPECIFIED', 'UNSPECIFIED', ('UNSPECIFIED'), ('UNSPECIFIED'), ('UNSPECIFIED') ) ;
#192 = EDGE_LOOP ( 'NONE', ( #149 ) ) ;
#193 = CC_DESIGN_APPROVAL ( #124, ( #118 ) ) ;
#194 = FACE_BOUND ( 'NONE', #62, .T. ) ;
#195 = APPROVAL_STATUS ( 'not_yet_approved' ) ;
#196 = FACE_OUTER_BOUND ( 'NONE', #43, .T. ) ;
#197 = DIRECTION ( 'NONE',  ( -3.491481338843133355E-15, 1.224646799147353454E-16, -1.000000000000000000 ) ) ;
#198 = CIRCLE ( 'NONE', #38, 4.800000000000001599 ) ;
#199 = CC_DESIGN_PERSON_AND_ORGANIZATION_ASSIGNMENT ( #174, #47, ( #118 ) ) ;
#200 = DIRECTION ( 'NONE',  ( -3.491481338843133355E-15, 1.224646799147353454E-16, -1.000000000000000000 ) ) ;
#201 = DATE_AND_TIME ( #54, #167 ) ;
#202 = AXIS2_PLACEMENT_3D ( 'NONE', #87, #154, #99 ) ;
#203 = VERTEX_POINT ( 'NONE', #19 ) ;
#204 = APPLICATION_CONTEXT ( 'configuration controlled 3d designs of mechanical parts and assemblies' ) ;
#205 =( LENGTH_UNIT ( ) NAMED_UNIT ( * ) SI_UNIT ( .MILLI., .METRE. ) );
#206 = AXIS2_PLACEMENT_3D ( 'NONE', #13, #216, #30 ) ;
#207 = EDGE_CURVE ( 'NONE', #166, #166, #231, .T. ) ;
#208 = PERSON_AND_ORGANIZATION ( #191, #58 ) ;
#209 = FACE_OUTER_BOUND ( 'NONE', #81, .T. ) ;
#210 = MANIFOLD_SOLID_BREP ( 'Corps-Déplacer/Copier1[1]', #172 ) ;
#211 = CALENDAR_DATE ( 2021, 15, 11 ) ;
#212 = CARTESIAN_POINT ( 'NONE',  ( 0.0000000000000000000, 0.0000000000000000000, 0.0000000000000000000 ) ) ;
#213 = MANIFOLD_SOLID_BREP ( 'Corps-Déplacer/Copier1[2]', #187 ) ;
#214 = CYLINDRICAL_SURFACE ( 'NONE', #45, 5.000000000000000000 ) ;
#215 = FACE_OUTER_BOUND ( 'NONE', #77, .T. ) ;
#216 = DIRECTION ( 'NONE',  ( -3.491481338843133355E-15, 1.224646799147353454E-16, -1.000000000000000000 ) ) ;
#217 = APPROVAL_PERSON_ORGANIZATION ( #136, #235, #63 ) ;
#218 = FACE_OUTER_BOUND ( 'NONE', #131, .T. ) ;
#219 = PERSON_AND_ORGANIZATION ( #191, #58 ) ;
#220 = APPLICATION_PROTOCOL_DEFINITION ( 'international standard', 'config_control_design', 1994, #189 ) ;
#221 = AXIS2_PLACEMENT_3D ( 'NONE', #44, #188, #134 ) ;
#222 = PERSON_AND_ORGANIZATION_ROLE ( 'design_owner' ) ;
#223 = PRODUCT_DEFINITION_SHAPE ( 'NONE', 'NONE',  #59 ) ;
#224 = CARTESIAN_POINT ( 'NONE',  ( 1.745740669421566678E-13, -4.800000000000006928, 50.00000000000000000 ) ) ;
#225 = CC_DESIGN_DATE_AND_TIME_ASSIGNMENT ( #158, #66, ( #226 ) ) ;
#226 = SECURITY_CLASSIFICATION ( '', '', #115 ) ;
#227 = ORIENTED_EDGE ( 'NONE', *, *, #34, .F. ) ;
#228 = EDGE_CURVE ( 'NONE', #203, #203, #198, .T. ) ;
#229 = FACE_OUTER_BOUND ( 'NONE', #78, .T. ) ;
#230 = ADVANCED_FACE ( 'NONE', ( #161, #218 ), #53, .T. ) ;
#231 = CIRCLE ( 'NONE', #160, 5.000000000000000000 ) ;
#232 = DIRECTION ( 'NONE',  ( 3.491481338843133355E-15, -1.224913660227414450E-16, 1.000000000000000000 ) ) ;
#233 = ADVANCED_BREP_SHAPE_REPRESENTATION ( '49283', ( #210, #213, #101 ), #122 ) ;
#234 = ADVANCED_FACE ( 'NONE', ( #242, #71 ), #214, .T. ) ;
#235 = APPROVAL ( #195, 'UNSPECIFIED' ) ;
#236 = CARTESIAN_POINT ( 'NONE',  ( 3.491481338843133355E-14, -1.224913660227414351E-15, 10.00000000000000000 ) ) ;
#237 = DIRECTION ( 'NONE',  ( -4.275831445896959482E-31, -1.000000000000000000, -1.224646799147353454E-16 ) ) ;
#238 = CARTESIAN_POINT ( 'NONE',  ( 1.745740669421566678E-13, 4.799999999999994493, 50.00000000000000000 ) ) ;
#239 = PRODUCT ( '49283', '49283', '', ( #1 ) ) ;
#240 = DIRECTION ( 'NONE',  ( 3.491481338843133355E-15, -1.224646799147353454E-16, 1.000000000000000000 ) ) ;
#241 = AXIS2_PLACEMENT_3D ( 'NONE', #238, #119, #97 ) ;
#242 = FACE_OUTER_BOUND ( 'NONE', #190, .T. ) ;
#243 = EDGE_CURVE ( 'NONE', #55, #55, #93, .T. ) ;
ENDSEC;
END-ISO-10303-21;
