ISO-10303-21;
HEADER;
FILE_DESCRIPTION (( 'STEP AP203' ),
    '1' );
FILE_NAME ('49282.step',
    '2021-11-15T13:03:57',
    ( '' ),
    ( '' ),
    'SwSTEP 2.0',
    'SolidWorks 2019',
    '' );
FILE_SCHEMA (( 'CONFIG_CONTROL_DESIGN' ));
ENDSEC;

DATA;
#1 = ORIENTED_EDGE ( 'NONE', *, *, #40, .F. ) ;
#2 = PLANE ( 'NONE',  #100 ) ;
#3 = DIRECTION ( 'NONE',  ( -3.491481338843133355E-15, 1.224646799147353207E-16, -1.000000000000000000 ) ) ;
#4 = DIRECTION ( 'NONE',  ( 4.275831445896958607E-31, 1.000000000000000000, 1.224646799147353207E-16 ) ) ;
#5 = PRODUCT ( '49282', '49282', '', ( #24 ) ) ;
#6 = VERTEX_POINT ( 'NONE', #68 ) ;
#7 = VERTEX_POINT ( 'NONE', #230 ) ;
#8 = CARTESIAN_POINT ( 'NONE',  ( 2.810642477768721783E-13, -9.858406733136192048E-15, 80.49999999999998579 ) ) ;
#9 = DATE_AND_TIME ( #177, #135 ) ;
#10 = APPROVAL_ROLE ( '' ) ;
#11 = CARTESIAN_POINT ( 'NONE',  ( 2.828099884462938396E-13, 2.624579619658236034E-32, 81.00000000000000000 ) ) ;
#12 = DESIGN_CONTEXT ( 'detailed design', #229, 'design' ) ;
#13 = APPROVAL_STATUS ( 'not_yet_approved' ) ;
#14 = EDGE_LOOP ( 'NONE', ( #96 ) ) ;
#15 = EDGE_LOOP ( 'NONE', ( #75 ) ) ;
#16 = ORIENTED_EDGE ( 'NONE', *, *, #118, .F. ) ;
#17 = EDGE_LOOP ( 'NONE', ( #80 ) ) ;
#18 =( GEOMETRIC_REPRESENTATION_CONTEXT ( 3 ) GLOBAL_UNCERTAINTY_ASSIGNED_CONTEXT ( ( #31 ) ) GLOBAL_UNIT_ASSIGNED_CONTEXT ( ( #214, #215, #48 ) ) REPRESENTATION_CONTEXT ( 'NONE', 'WORKASPACE' ) );
#19 = DIRECTION ( 'NONE',  ( 4.275831445896958607E-31, 1.000000000000000000, 1.224646799147353207E-16 ) ) ;
#20 = EDGE_CURVE ( 'NONE', #7, #7, #202, .T. ) ;
#21 = CLOSED_SHELL ( 'NONE', ( #134, #208, #90, #236, #119, #232 ) ) ;
#22 = AXIS2_PLACEMENT_3D ( 'NONE', #123, #109, #52 ) ;
#23 = DIRECTION ( 'NONE',  ( 0.0000000000000000000, 1.000000000000000000, 0.0000000000000000000 ) ) ;
#24 = MECHANICAL_CONTEXT ( 'NONE', #133, 'mechanical' ) ;
#25 = PERSON_AND_ORGANIZATION_ROLE ( 'design_owner' ) ;
#26 = APPROVAL_PERSON_ORGANIZATION ( #161, #131, #10 ) ;
#27 = COORDINATED_UNIVERSAL_TIME_OFFSET ( 1, 0, .AHEAD. ) ;
#28 = CYLINDRICAL_SURFACE ( 'NONE', #62, 4.000000000000000000 ) ;
#29 = PERSON_AND_ORGANIZATION_ROLE ( 'creator' ) ;
#30 = CALENDAR_DATE ( 2021, 15, 11 ) ;
#31 = UNCERTAINTY_MEASURE_WITH_UNIT (LENGTH_MEASURE( 1.000000000000000082E-05 ), #214, 'distance_accuracy_value', 'NONE');
#32 = DIRECTION ( 'NONE',  ( 3.491481338843133355E-15, -1.224646799147353207E-16, 1.000000000000000000 ) ) ;
#33 = AXIS2_PLACEMENT_3D ( 'NONE', #225, #57, #207 ) ;
#34 = ADVANCED_FACE ( 'NONE', ( #145 ), #223, .T. ) ;
#35 = PRODUCT_RELATED_PRODUCT_CATEGORY ( 'detail', '', ( #5 ) ) ;
#36 = PERSON_AND_ORGANIZATION ( #78, #114 ) ;
#37 = CARTESIAN_POINT ( 'NONE',  ( 1.571166602479409884E-13, -5.512111471023364875E-15, 45.00000000000000000 ) ) ;
#38 = CC_DESIGN_PERSON_AND_ORGANIZATION_ASSIGNMENT ( #125, #180, ( #54 ) ) ;
#39 = CARTESIAN_POINT ( 'NONE',  ( 0.0000000000000000000, 0.0000000000000000000, 0.0000000000000000000 ) ) ;
#40 = EDGE_CURVE ( 'NONE', #63, #63, #91, .T. ) ;
#41 = AXIS2_PLACEMENT_3D ( 'NONE', #53, #129, #132 ) ;
#42 = FACE_OUTER_BOUND ( 'NONE', #167, .T. ) ;
#43 = DIRECTION ( 'NONE',  ( 3.491481338843133355E-15, -1.224913660227414450E-16, 1.000000000000000000 ) ) ;
#44 = DIRECTION ( 'NONE',  ( -3.491481338843133355E-15, 1.224646799147353207E-16, -1.000000000000000000 ) ) ;
#45 = LOCAL_TIME ( 14, 3, 57.00000000000000000, #240 ) ;
#46 = DIRECTION ( 'NONE',  ( 1.000000000000000000, 0.0000000000000000000, 0.0000000000000000000 ) ) ;
#47 = DATE_AND_TIME ( #233, #220 ) ;
#48 =( NAMED_UNIT ( * ) SI_UNIT ( $, .STERADIAN. ) SOLID_ANGLE_UNIT ( ) );
#49 = CARTESIAN_POINT ( 'NONE',  ( 1.571166602479409884E-13, 3.799999999999994937, 45.00000000000000000 ) ) ;
#50 = PERSON_AND_ORGANIZATION ( #78, #114 ) ;
#51 = SHAPE_DEFINITION_REPRESENTATION ( #209, #194 ) ;
#52 = DIRECTION ( 'NONE',  ( 4.275831445896958607E-31, 1.000000000000000000, 1.224646799147353207E-16 ) ) ;
#53 = CARTESIAN_POINT ( 'NONE',  ( 2.793185071074506684E-14, 2.999519565323713574E-32, 8.000000000000000000 ) ) ;
#54 = SECURITY_CLASSIFICATION ( '', '', #183 ) ;
#55 = FACE_OUTER_BOUND ( 'NONE', #224, .T. ) ;
#56 = EDGE_LOOP ( 'NONE', ( #221 ) ) ;
#57 = DIRECTION ( 'NONE',  ( 3.491481338843133355E-15, -1.224913660227414450E-16, 1.000000000000000000 ) ) ;
#58 = DIRECTION ( 'NONE',  ( 0.0000000000000000000, 1.000000000000000000, 0.0000000000000000000 ) ) ;
#59 = CC_DESIGN_PERSON_AND_ORGANIZATION_ASSIGNMENT ( #36, #29, ( #162 ) ) ;
#60 = ADVANCED_FACE ( 'NONE', ( #55, #206 ), #130, .T. ) ;
#61 = APPLICATION_PROTOCOL_DEFINITION ( 'international standard', 'config_control_design', 1994, #133 ) ;
#62 = AXIS2_PLACEMENT_3D ( 'NONE', #239, #44, #4 ) ;
#63 = VERTEX_POINT ( 'NONE', #235 ) ;
#64 = CYLINDRICAL_SURFACE ( 'NONE', #126, 3.800000000000000266 ) ;
#65 = ADVANCED_FACE ( 'NONE', ( #79 ), #2, .T. ) ;
#66 = PERSON_AND_ORGANIZATION ( #78, #114 ) ;
#67 = DIRECTION ( 'NONE',  ( -3.491481338843133355E-15, 1.224646799147353207E-16, -1.000000000000000000 ) ) ;
#68 = CARTESIAN_POINT ( 'NONE',  ( 1.571166602479409884E-13, -4.000000000000009770, 45.00000000000000000 ) ) ;
#69 = CIRCLE ( 'NONE', #196, 4.000000000000000000 ) ;
#70 = PERSON_AND_ORGANIZATION ( #78, #114 ) ;
#71 = DATE_AND_TIME ( #30, #45 ) ;
#72 = CONICAL_SURFACE ( 'NONE', #127, 4.000000000000000000, 0.7853981633974335130 ) ;
#73 = EDGE_LOOP ( 'NONE', ( #182 ) ) ;
#74 = APPROVAL_ROLE ( '' ) ;
#75 = ORIENTED_EDGE ( 'NONE', *, *, #20, .F. ) ;
#76 = EDGE_CURVE ( 'NONE', #6, #6, #85, .T. ) ;
#77 = DIRECTION ( 'NONE',  ( 0.0000000000000000000, -1.000000000000000000, 0.0000000000000000000 ) ) ;
#78 = PERSON ( 'UNSPECIFIED', 'UNSPECIFIED', 'UNSPECIFIED', ('UNSPECIFIED'), ('UNSPECIFIED'), ('UNSPECIFIED') ) ;
#79 = FACE_OUTER_BOUND ( 'NONE', #73, .T. ) ;
#80 = ORIENTED_EDGE ( 'NONE', *, *, #76, .T. ) ;
#81 = DIRECTION ( 'NONE',  ( -3.491481338843133355E-15, 1.224646799147353207E-16, -1.000000000000000000 ) ) ;
#82 = CIRCLE ( 'NONE', #222, 4.000000000000000000 ) ;
#83 = CC_DESIGN_SECURITY_CLASSIFICATION ( #54, ( #162 ) ) ;
#84 = CARTESIAN_POINT ( 'NONE',  ( 2.810642477768721783E-13, 3.999999999999990674, 80.49999999999998579 ) ) ;
#85 = CIRCLE ( 'NONE', #33, 4.000000000000004441 ) ;
#86 = APPROVAL_ROLE ( '' ) ;
#87 = DATE_TIME_ROLE ( 'creation_date' ) ;
#88 = DIRECTION ( 'NONE',  ( 4.276763186378056353E-31, 1.000000000000000000, 1.224913660227414450E-16 ) ) ;
#89 = DIRECTION ( 'NONE',  ( -3.491481338843133355E-15, 1.224646799147353207E-16, -1.000000000000000000 ) ) ;
#90 = ADVANCED_FACE ( 'NONE', ( #42 ), #117, .F. ) ;
#91 = CIRCLE ( 'NONE', #181, 3.800000000000000266 ) ;
#92 = EDGE_LOOP ( 'NONE', ( #203 ) ) ;
#93 = ORIENTED_EDGE ( 'NONE', *, *, #20, .T. ) ;
#94 = DIRECTION ( 'NONE',  ( 0.0000000000000000000, -1.000000000000000000, 0.0000000000000000000 ) ) ;
#95 = CIRCLE ( 'NONE', #22, 4.000000000000000000 ) ;
#96 = ORIENTED_EDGE ( 'NONE', *, *, #40, .T. ) ;
#97 = EDGE_LOOP ( 'NONE', ( #164 ) ) ;
#98 = FACE_OUTER_BOUND ( 'NONE', #111, .T. ) ;
#99 = DIRECTION ( 'NONE',  ( -3.491481338843133355E-15, 1.224646799147353207E-16, -1.000000000000000000 ) ) ;
#100 = AXIS2_PLACEMENT_3D ( 'NONE', #168, #3, #149 ) ;
#101 = APPROVAL_PERSON_ORGANIZATION ( #50, #242, #74 ) ;
#102 = CARTESIAN_POINT ( 'NONE',  ( 0.0000000000000000000, 0.0000000000000000000, 0.0000000000000000000 ) ) ;
#103 = APPLICATION_PROTOCOL_DEFINITION ( 'international standard', 'config_control_design', 1994, #229 ) ;
#104 = PERSON_AND_ORGANIZATION ( #78, #114 ) ;
#105 = FACE_BOUND ( 'NONE', #115, .T. ) ;
#106 = CALENDAR_DATE ( 2021, 15, 11 ) ;
#107 = DATE_TIME_ROLE ( 'classification_date' ) ;
#108 = AXIS2_PLACEMENT_3D ( 'NONE', #39, #113, #19 ) ;
#109 = DIRECTION ( 'NONE',  ( -3.491481338843133355E-15, 1.224646799147353207E-16, -1.000000000000000000 ) ) ;
#110 = APPROVAL_DATE_TIME ( #238, #242 ) ;
#111 = EDGE_LOOP ( 'NONE', ( #184 ) ) ;
#112 = APPROVAL ( #234, 'UNSPECIFIED' ) ;
#113 = DIRECTION ( 'NONE',  ( -3.491481338843133355E-15, 1.224646799147353207E-16, -1.000000000000000000 ) ) ;
#114 = ORGANIZATION ( 'UNSPECIFIED', 'UNSPECIFIED', '' ) ;
#115 = EDGE_LOOP ( 'NONE', ( #205 ) ) ;
#116 = DIRECTION ( 'NONE',  ( -4.276763186378055477E-31, -1.000000000000000000, -1.224913660227414696E-16 ) ) ;
#117 = PLANE ( 'NONE',  #170 ) ;
#118 = EDGE_CURVE ( 'NONE', #211, #211, #171, .T. ) ;
#119 = ADVANCED_FACE ( 'NONE', ( #216, #98 ), #152, .T. ) ;
#120 = APPROVAL_DATE_TIME ( #47, #112 ) ;
#121 = DIRECTION ( 'NONE',  ( 0.0000000000000000000, 0.0000000000000000000, 1.000000000000000000 ) ) ;
#122 = CC_DESIGN_APPROVAL ( #242, ( #54 ) ) ;
#123 = CARTESIAN_POINT ( 'NONE',  ( -1.710332578358783092E-30, 5.999039130647430431E-32, -4.898587196589412829E-16 ) ) ;
#124 = PLANE ( 'NONE',  #201 ) ;
#125 = PERSON_AND_ORGANIZATION ( #78, #114 ) ;
#126 = AXIS2_PLACEMENT_3D ( 'NONE', #102, #43, #116 ) ;
#127 = AXIS2_PLACEMENT_3D ( 'NONE', #8, #67, #140 ) ;
#128 = LOCAL_TIME ( 14, 3, 57.00000000000000000, #199 ) ;
#129 = DIRECTION ( 'NONE',  ( 3.491481338843133355E-15, -1.224646799147353207E-16, 1.000000000000000000 ) ) ;
#130 = CYLINDRICAL_SURFACE ( 'NONE', #108, 4.000000000000000000 ) ;
#131 = APPROVAL ( #13, 'UNSPECIFIED' ) ;
#132 = DIRECTION ( 'NONE',  ( -4.275831445896958607E-31, -1.000000000000000000, -1.224646799147353207E-16 ) ) ;
#133 = APPLICATION_CONTEXT ( 'configuration controlled 3d designs of mechanical parts and assemblies' ) ;
#134 = ADVANCED_FACE ( 'NONE', ( #228, #210 ), #28, .T. ) ;
#135 = LOCAL_TIME ( 14, 3, 57.00000000000000000, #27 ) ;
#136 = ORIENTED_EDGE ( 'NONE', *, *, #144, .T. ) ;
#137 = CLOSED_SHELL ( 'NONE', ( #65, #60, #34 ) ) ;
#138 = CARTESIAN_POINT ( 'NONE',  ( 0.0000000000000000000, 0.0000000000000000000, 0.0000000000000000000 ) ) ;
#139 = CARTESIAN_POINT ( 'NONE',  ( 2.793185071074506684E-14, 3.999999999999999112, 8.000000000000000000 ) ) ;
#140 = DIRECTION ( 'NONE',  ( 0.0000000000000000000, 1.000000000000000000, 0.0000000000000000000 ) ) ;
#141 = FACE_OUTER_BOUND ( 'NONE', #204, .T. ) ;
#142 = PERSON_AND_ORGANIZATION_ROLE ( 'design_supplier' ) ;
#143 = CARTESIAN_POINT ( 'NONE',  ( 2.793185071074506684E-14, -9.797174393178825657E-16, 8.000000000000000000 ) ) ;
#144 = EDGE_CURVE ( 'NONE', #190, #190, #69, .T. ) ;
#145 = FACE_OUTER_BOUND ( 'NONE', #97, .T. ) ;
#146 = AXIS2_PLACEMENT_3D ( 'NONE', #138, #121, #46 ) ;
#147 = ORIENTED_EDGE ( 'NONE', *, *, #175, .F. ) ;
#148 = EDGE_LOOP ( 'NONE', ( #93 ) ) ;
#149 = DIRECTION ( 'NONE',  ( 4.275831445896958607E-31, 1.000000000000000000, 1.224646799147353207E-16 ) ) ;
#150 = CARTESIAN_POINT ( 'NONE',  ( 2.810642477768721783E-13, -9.858406733136192048E-15, 80.49999999999998579 ) ) ;
#151 = CC_DESIGN_APPROVAL ( #131, ( #162 ) ) ;
#152 = PLANE ( 'NONE',  #237 ) ;
#153 = CC_DESIGN_DATE_AND_TIME_ASSIGNMENT ( #9, #87, ( #155 ) ) ;
#154 = FACE_OUTER_BOUND ( 'NONE', #148, .T. ) ;
#155 = PRODUCT_DEFINITION ( 'UNKNOWN', '', #162, #12 ) ;
#156 = AXIS2_PLACEMENT_3D ( 'NONE', #166, #165, #94 ) ;
#157 = CARTESIAN_POINT ( 'NONE',  ( 3.421138828918010427E-46, 4.000000000000000000, 0.0000000000000000000 ) ) ;
#158 = COORDINATED_UNIVERSAL_TIME_OFFSET ( 1, 0, .AHEAD. ) ;
#159 = CC_DESIGN_DATE_AND_TIME_ASSIGNMENT ( #218, #107, ( #54 ) ) ;
#160 = VERTEX_POINT ( 'NONE', #84 ) ;
#161 = PERSON_AND_ORGANIZATION ( #78, #114 ) ;
#162 = PRODUCT_DEFINITION_FORMATION_WITH_SPECIFIED_SOURCE ( 'ANY', '', #5, .NOT_KNOWN. ) ;
#163 = CALENDAR_DATE ( 2021, 15, 11 ) ;
#164 = ORIENTED_EDGE ( 'NONE', *, *, #144, .F. ) ;
#165 = DIRECTION ( 'NONE',  ( 3.491481338843133355E-15, -1.224913660227414450E-16, 1.000000000000000000 ) ) ;
#166 = CARTESIAN_POINT ( 'NONE',  ( 2.793185071074506684E-14, -9.799309281819315597E-16, 8.000000000000000000 ) ) ;
#167 = EDGE_LOOP ( 'NONE', ( #16 ) ) ;
#168 = CARTESIAN_POINT ( 'NONE',  ( -8.551662891793915461E-31, 2.999519565323715216E-32, -2.449293598294706414E-16 ) ) ;
#169 = DIRECTION ( 'NONE',  ( 0.0000000000000000000, 1.000000000000000000, 0.0000000000000000000 ) ) ;
#170 = AXIS2_PLACEMENT_3D ( 'NONE', #11, #89, #198 ) ;
#171 = CIRCLE ( 'NONE', #226, 3.500000000000000444 ) ;
#172 = CARTESIAN_POINT ( 'NONE',  ( 2.828099884462938396E-13, 3.499999999999990674, 81.00000000000000000 ) ) ;
#173 = VERTEX_POINT ( 'NONE', #157 ) ;
#174 = PERSON_AND_ORGANIZATION ( #78, #114 ) ;
#175 = EDGE_CURVE ( 'NONE', #160, #160, #82, .T. ) ;
#176 = CC_DESIGN_APPROVAL ( #112, ( #155 ) ) ;
#177 = CALENDAR_DATE ( 2021, 15, 11 ) ;
#178 = COORDINATED_UNIVERSAL_TIME_OFFSET ( 1, 0, .AHEAD. ) ;
#179 = FACE_OUTER_BOUND ( 'NONE', #15, .T. ) ;
#180 = PERSON_AND_ORGANIZATION_ROLE ( 'classification_officer' ) ;
#181 = AXIS2_PLACEMENT_3D ( 'NONE', #37, #188, #77 ) ;
#182 = ORIENTED_EDGE ( 'NONE', *, *, #231, .T. ) ;
#183 = SECURITY_CLASSIFICATION_LEVEL ( 'unclassified' ) ;
#184 = ORIENTED_EDGE ( 'NONE', *, *, #76, .F. ) ;
#185 = CC_DESIGN_PERSON_AND_ORGANIZATION_ASSIGNMENT ( #104, #197, ( #155 ) ) ;
#186 = EDGE_LOOP ( 'NONE', ( #1 ) ) ;
#187 = APPROVAL_PERSON_ORGANIZATION ( #174, #112, #86 ) ;
#188 = DIRECTION ( 'NONE',  ( 3.491481338843133355E-15, -1.224913660227414450E-16, 1.000000000000000000 ) ) ;
#189 = CARTESIAN_POINT ( 'NONE',  ( 2.828099884462938396E-13, -9.919639073093561200E-15, 81.00000000000000000 ) ) ;
#190 = VERTEX_POINT ( 'NONE', #139 ) ;
#191 = DIRECTION ( 'NONE',  ( -3.491481338843133355E-15, 1.224913660227414450E-16, -1.000000000000000000 ) ) ;
#192 = DIRECTION ( 'NONE',  ( -4.275831445896958607E-31, -1.000000000000000000, -1.224646799147353207E-16 ) ) ;
#193 = CC_DESIGN_PERSON_AND_ORGANIZATION_ASSIGNMENT ( #70, #142, ( #162 ) ) ;
#194 = ADVANCED_BREP_SHAPE_REPRESENTATION ( '49282', ( #212, #213, #146 ), #18 ) ;
#195 = FACE_OUTER_BOUND ( 'NONE', #186, .T. ) ;
#196 = AXIS2_PLACEMENT_3D ( 'NONE', #143, #219, #169 ) ;
#197 = PERSON_AND_ORGANIZATION_ROLE ( 'creator' ) ;
#198 = DIRECTION ( 'NONE',  ( 4.275831445896958607E-31, 1.000000000000000000, 1.224646799147353207E-16 ) ) ;
#199 = COORDINATED_UNIVERSAL_TIME_OFFSET ( 1, 0, .AHEAD. ) ;
#200 = CARTESIAN_POINT ( 'NONE',  ( 2.793185071074506684E-14, 2.999519565323713574E-32, 8.000000000000000000 ) ) ;
#201 = AXIS2_PLACEMENT_3D ( 'NONE', #200, #32, #192 ) ;
#202 = CIRCLE ( 'NONE', #156, 3.799999999999999822 ) ;
#203 = ORIENTED_EDGE ( 'NONE', *, *, #175, .T. ) ;
#204 = EDGE_LOOP ( 'NONE', ( #147 ) ) ;
#205 = ORIENTED_EDGE ( 'NONE', *, *, #118, .T. ) ;
#206 = FACE_OUTER_BOUND ( 'NONE', #56, .T. ) ;
#207 = DIRECTION ( 'NONE',  ( 0.0000000000000000000, -1.000000000000000000, 0.0000000000000000000 ) ) ;
#208 = ADVANCED_FACE ( 'NONE', ( #105, #141 ), #72, .T. ) ;
#209 = PRODUCT_DEFINITION_SHAPE ( 'NONE', 'NONE',  #155 ) ;
#210 = FACE_OUTER_BOUND ( 'NONE', #17, .T. ) ;
#211 = VERTEX_POINT ( 'NONE', #172 ) ;
#212 = MANIFOLD_SOLID_BREP ( 'Corps-Déplacer/Copier1[1]', #21 ) ;
#213 = MANIFOLD_SOLID_BREP ( 'Corps-Déplacer/Copier1[2]', #137 ) ;
#214 =( LENGTH_UNIT ( ) NAMED_UNIT ( * ) SI_UNIT ( .MILLI., .METRE. ) );
#215 =( NAMED_UNIT ( * ) PLANE_ANGLE_UNIT ( ) SI_UNIT ( $, .RADIAN. ) );
#216 = FACE_BOUND ( 'NONE', #14, .T. ) ;
#217 = APPROVAL_DATE_TIME ( #71, #131 ) ;
#218 = DATE_AND_TIME ( #106, #128 ) ;
#219 = DIRECTION ( 'NONE',  ( -3.491481338843133355E-15, 1.224646799147353207E-16, -1.000000000000000000 ) ) ;
#220 = LOCAL_TIME ( 14, 3, 57.00000000000000000, #158 ) ;
#221 = ORIENTED_EDGE ( 'NONE', *, *, #231, .F. ) ;
#222 = AXIS2_PLACEMENT_3D ( 'NONE', #150, #81, #58 ) ;
#223 = PLANE ( 'NONE',  #41 ) ;
#224 = EDGE_LOOP ( 'NONE', ( #136 ) ) ;
#225 = CARTESIAN_POINT ( 'NONE',  ( 1.571166602479409884E-13, -5.512111471023364875E-15, 45.00000000000000000 ) ) ;
#226 = AXIS2_PLACEMENT_3D ( 'NONE', #189, #99, #23 ) ;
#227 = LOCAL_TIME ( 14, 3, 57.00000000000000000, #178 ) ;
#228 = FACE_OUTER_BOUND ( 'NONE', #92, .T. ) ;
#229 = APPLICATION_CONTEXT ( 'configuration controlled 3d designs of mechanical parts and assemblies' ) ;
#230 = CARTESIAN_POINT ( 'NONE',  ( 2.793185071074506684E-14, -3.800000000000000711, 8.000000000000000000 ) ) ;
#231 = EDGE_CURVE ( 'NONE', #173, #173, #95, .T. ) ;
#232 = ADVANCED_FACE ( 'NONE', ( #179 ), #124, .F. ) ;
#233 = CALENDAR_DATE ( 2021, 15, 11 ) ;
#234 = APPROVAL_STATUS ( 'not_yet_approved' ) ;
#235 = CARTESIAN_POINT ( 'NONE',  ( 1.571166602479409884E-13, -3.800000000000006040, 45.00000000000000000 ) ) ;
#236 = ADVANCED_FACE ( 'NONE', ( #154, #195 ), #64, .T. ) ;
#237 = AXIS2_PLACEMENT_3D ( 'NONE', #49, #191, #88 ) ;
#238 = DATE_AND_TIME ( #163, #227 ) ;
#239 = CARTESIAN_POINT ( 'NONE',  ( 0.0000000000000000000, 0.0000000000000000000, 0.0000000000000000000 ) ) ;
#240 = COORDINATED_UNIVERSAL_TIME_OFFSET ( 1, 0, .AHEAD. ) ;
#241 = APPROVAL_STATUS ( 'not_yet_approved' ) ;
#242 = APPROVAL ( #241, 'UNSPECIFIED' ) ;
#243 = CC_DESIGN_PERSON_AND_ORGANIZATION_ASSIGNMENT ( #66, #25, ( #5 ) ) ;
ENDSEC;
END-ISO-10303-21;
