ISO-10303-21;
HEADER;
FILE_DESCRIPTION (( 'STEP AP203' ),
    '1' );
FILE_NAME ('49281.step',
    '2021-11-15T13:03:56',
    ( '' ),
    ( '' ),
    'SwSTEP 2.0',
    'SolidWorks 2019',
    '' );
FILE_SCHEMA (( 'CONFIG_CONTROL_DESIGN' ));
ENDSEC;

DATA;
#1 = PRODUCT_DEFINITION ( 'UNKNOWN', '', #134, #209 ) ;
#2 = AXIS2_PLACEMENT_3D ( 'NONE', #129, #162, #167 ) ;
#3 = CALENDAR_DATE ( 2021, 15, 11 ) ;
#4 = EDGE_LOOP ( 'NONE', ( #236 ) ) ;
#5 = CALENDAR_DATE ( 2021, 15, 11 ) ;
#6 = ORIENTED_EDGE ( 'NONE', *, *, #175, .F. ) ;
#7 = PRODUCT_DEFINITION_SHAPE ( 'NONE', 'NONE',  #1 ) ;
#8 = PERSON_AND_ORGANIZATION ( #57, #189 ) ;
#9 = DIRECTION ( 'NONE',  ( 0.0000000000000000000, 1.000000000000000000, 0.0000000000000000000 ) ) ;
#10 = APPROVAL_STATUS ( 'not_yet_approved' ) ;
#11 = CARTESIAN_POINT ( 'NONE',  ( 1.047444401652940007E-13, -3.000000000000006217, 30.00000000000000000 ) ) ;
#12 = FACE_OUTER_BOUND ( 'NONE', #67, .T. ) ;
#13 = FACE_OUTER_BOUND ( 'NONE', #122, .T. ) ;
#14 = DIRECTION ( 'NONE',  ( 0.0000000000000000000, -1.000000000000000000, 0.0000000000000000000 ) ) ;
#15 = AXIS2_PLACEMENT_3D ( 'NONE', #25, #144, #22 ) ;
#16 = FACE_OUTER_BOUND ( 'NONE', #174, .T. ) ;
#17 = DIRECTION ( 'NONE',  ( 4.275831445896959482E-31, 1.000000000000000000, 1.224646799147353207E-16 ) ) ;
#18 = COORDINATED_UNIVERSAL_TIME_OFFSET ( 1, 0, .AHEAD. ) ;
#19 = FACE_OUTER_BOUND ( 'NONE', #4, .T. ) ;
#20 = ADVANCED_FACE ( 'NONE', ( #211 ), #43, .F. ) ;
#21 = CARTESIAN_POINT ( 'NONE',  ( -6.413747168845438786E-31, 2.249639673992786412E-32, -1.836970198721029934E-16 ) ) ;
#22 = DIRECTION ( 'NONE',  ( 1.000000000000000000, 0.0000000000000000000, 0.0000000000000000000 ) ) ;
#23 = APPROVAL_ROLE ( '' ) ;
#24 = ORIENTED_EDGE ( 'NONE', *, *, #110, .T. ) ;
#25 = CARTESIAN_POINT ( 'NONE',  ( 0.0000000000000000000, 0.0000000000000000000, 0.0000000000000000000 ) ) ;
#26 = FACE_BOUND ( 'NONE', #215, .T. ) ;
#27 = APPROVAL ( #121, 'UNSPECIFIED' ) ;
#28 = CIRCLE ( 'NONE', #68, 2.800000000000003819 ) ;
#29 = DIRECTION ( 'NONE',  ( 3.491481338843133355E-15, -1.224913660227414450E-16, 1.000000000000000000 ) ) ;
#30 = LOCAL_TIME ( 14, 3, 56.00000000000000000, #86 ) ;
#31 = VERTEX_POINT ( 'NONE', #112 ) ;
#32 = DIRECTION ( 'NONE',  ( 4.275831445896959482E-31, 1.000000000000000000, 1.224646799147353207E-16 ) ) ;
#33 = CIRCLE ( 'NONE', #171, 3.000000000000000000 ) ;
#34 = ADVANCED_FACE ( 'NONE', ( #37, #142 ), #120, .T. ) ;
#35 = UNCERTAINTY_MEASURE_WITH_UNIT (LENGTH_MEASURE( 1.000000000000000082E-05 ), #75, 'distance_accuracy_value', 'NONE');
#36 = EDGE_LOOP ( 'NONE', ( #230 ) ) ;
#37 = FACE_OUTER_BOUND ( 'NONE', #61, .T. ) ;
#38 = CC_DESIGN_APPROVAL ( #229, ( #134 ) ) ;
#39 = PERSON_AND_ORGANIZATION ( #57, #189 ) ;
#40 = ORIENTED_EDGE ( 'NONE', *, *, #110, .F. ) ;
#41 = ADVANCED_FACE ( 'NONE', ( #208 ), #185, .F. ) ;
#42 = DATE_AND_TIME ( #82, #88 ) ;
#43 = PLANE ( 'NONE',  #92 ) ;
#44 = MANIFOLD_SOLID_BREP ( 'Corps-Déplacer/Copier1[2]', #58 ) ;
#45 = APPROVAL_DATE_TIME ( #219, #229 ) ;
#46 = DIRECTION ( 'NONE',  ( -4.275831445896958607E-31, -1.000000000000000000, -1.224646799147353207E-16 ) ) ;
#47 = APPLICATION_PROTOCOL_DEFINITION ( 'international standard', 'config_control_design', 1994, #90 ) ;
#48 = APPROVAL_DATE_TIME ( #89, #153 ) ;
#49 = CARTESIAN_POINT ( 'NONE',  ( 1.047444401652940007E-13, -3.674740980682243250E-15, 30.00000000000000000 ) ) ;
#50 = ADVANCED_FACE ( 'NONE', ( #19, #16 ), #95, .T. ) ;
#51 = CARTESIAN_POINT ( 'NONE',  ( 2.304377683636468267E-13, 2.499999999999992006, 66.00000000000000000 ) ) ;
#52 = CIRCLE ( 'NONE', #78, 3.000000000000002665 ) ;
#53 = VERTEX_POINT ( 'NONE', #130 ) ;
#54 = CARTESIAN_POINT ( 'NONE',  ( 2.094888803305879382E-14, 3.000000000000000000, 5.999999999999998224 ) ) ;
#55 = PLANE ( 'NONE',  #224 ) ;
#56 = ADVANCED_FACE ( 'NONE', ( #124 ), #188, .T. ) ;
#57 = PERSON ( 'UNSPECIFIED', 'UNSPECIFIED', 'UNSPECIFIED', ('UNSPECIFIED'), ('UNSPECIFIED'), ('UNSPECIFIED') ) ;
#58 = CLOSED_SHELL ( 'NONE', ( #56, #50, #94 ) ) ;
#59 = APPLICATION_CONTEXT ( 'configuration controlled 3d designs of mechanical parts and assemblies' ) ;
#60 = CARTESIAN_POINT ( 'NONE',  ( 2.304377683636468267E-13, 1.874699728327309694E-32, 66.00000000000000000 ) ) ;
#61 = EDGE_LOOP ( 'NONE', ( #101 ) ) ;
#62 = DATE_TIME_ROLE ( 'creation_date' ) ;
#63 = EDGE_LOOP ( 'NONE', ( #24 ) ) ;
#64 = APPROVAL_PERSON_ORGANIZATION ( #8, #153, #195 ) ;
#65 = CC_DESIGN_PERSON_AND_ORGANIZATION_ASSIGNMENT ( #221, #104, ( #93 ) ) ;
#66 = CARTESIAN_POINT ( 'NONE',  ( 2.094888803305879382E-14, 2.249639673992786412E-32, 5.999999999999998224 ) ) ;
#67 = EDGE_LOOP ( 'NONE', ( #97 ) ) ;
#68 = AXIS2_PLACEMENT_3D ( 'NONE', #194, #29, #111 ) ;
#69 = DIRECTION ( 'NONE',  ( 0.0000000000000000000, -1.000000000000000000, 0.0000000000000000000 ) ) ;
#70 = FACE_OUTER_BOUND ( 'NONE', #170, .T. ) ;
#71 = DIRECTION ( 'NONE',  ( 0.0000000000000000000, 1.000000000000000000, 0.0000000000000000000 ) ) ;
#72 =( GEOMETRIC_REPRESENTATION_CONTEXT ( 3 ) GLOBAL_UNCERTAINTY_ASSIGNED_CONTEXT ( ( #35 ) ) GLOBAL_UNIT_ASSIGNED_CONTEXT ( ( #75, #205, #152 ) ) REPRESENTATION_CONTEXT ( 'NONE', 'WORKASPACE' ) );
#73 = DIRECTION ( 'NONE',  ( 4.275831445896958607E-31, 1.000000000000000000, 1.224646799147353207E-16 ) ) ;
#74 = LOCAL_TIME ( 14, 3, 56.00000000000000000, #173 ) ;
#75 =( LENGTH_UNIT ( ) NAMED_UNIT ( * ) SI_UNIT ( .MILLI., .METRE. ) );
#76 = CIRCLE ( 'NONE', #210, 2.800000000000003819 ) ;
#77 = CC_DESIGN_PERSON_AND_ORGANIZATION_ASSIGNMENT ( #158, #105, ( #134 ) ) ;
#78 = AXIS2_PLACEMENT_3D ( 'NONE', #49, #151, #69 ) ;
#79 = ORIENTED_EDGE ( 'NONE', *, *, #226, .T. ) ;
#80 = ADVANCED_FACE ( 'NONE', ( #178, #180 ), #243, .T. ) ;
#81 = CLOSED_SHELL ( 'NONE', ( #34, #80, #20, #231, #201, #41 ) ) ;
#82 = CALENDAR_DATE ( 2021, 15, 11 ) ;
#83 = DIRECTION ( 'NONE',  ( -3.491481338843133355E-15, 1.224646799147353207E-16, -1.000000000000000000 ) ) ;
#84 = ORIENTED_EDGE ( 'NONE', *, *, #147, .T. ) ;
#85 = DATE_AND_TIME ( #190, #234 ) ;
#86 = COORDINATED_UNIVERSAL_TIME_OFFSET ( 1, 0, .AHEAD. ) ;
#87 = DIRECTION ( 'NONE',  ( -3.491481338843133355E-15, 1.224646799147353207E-16, -1.000000000000000000 ) ) ;
#88 = LOCAL_TIME ( 14, 3, 56.00000000000000000, #18 ) ;
#89 = DATE_AND_TIME ( #238, #30 ) ;
#90 = APPLICATION_CONTEXT ( 'configuration controlled 3d designs of mechanical parts and assemblies' ) ;
#91 = CARTESIAN_POINT ( 'NONE',  ( 2.094888803305879382E-14, 2.249639673992786412E-32, 5.999999999999998224 ) ) ;
#92 = AXIS2_PLACEMENT_3D ( 'NONE', #60, #126, #187 ) ;
#93 = PRODUCT ( '49281', '49281', '', ( #128 ) ) ;
#94 = ADVANCED_FACE ( 'NONE', ( #12 ), #143, .T. ) ;
#95 = CYLINDRICAL_SURFACE ( 'NONE', #123, 3.000000000000000444 ) ;
#96 = CC_DESIGN_PERSON_AND_ORGANIZATION_ASSIGNMENT ( #98, #239, ( #134 ) ) ;
#97 = ORIENTED_EDGE ( 'NONE', *, *, #160, .F. ) ;
#98 = PERSON_AND_ORGANIZATION ( #57, #189 ) ;
#99 = AXIS2_PLACEMENT_3D ( 'NONE', #136, #118, #17 ) ;
#100 = CARTESIAN_POINT ( 'NONE',  ( 0.0000000000000000000, 0.0000000000000000000, 0.0000000000000000000 ) ) ;
#101 = ORIENTED_EDGE ( 'NONE', *, *, #175, .T. ) ;
#102 = DATE_AND_TIME ( #5, #74 ) ;
#103 = EDGE_LOOP ( 'NONE', ( #84 ) ) ;
#104 = PERSON_AND_ORGANIZATION_ROLE ( 'design_owner' ) ;
#105 = PERSON_AND_ORGANIZATION_ROLE ( 'design_supplier' ) ;
#106 = DIRECTION ( 'NONE',  ( -3.491481338843133355E-15, 1.224646799147353207E-16, -1.000000000000000000 ) ) ;
#107 = APPLICATION_PROTOCOL_DEFINITION ( 'international standard', 'config_control_design', 1994, #59 ) ;
#108 = PERSON_AND_ORGANIZATION ( #57, #189 ) ;
#109 = DIRECTION ( 'NONE',  ( 4.276763186378056353E-31, 1.000000000000000000, 1.224913660227414450E-16 ) ) ;
#110 = EDGE_CURVE ( 'NONE', #202, #202, #52, .T. ) ;
#111 = DIRECTION ( 'NONE',  ( 0.0000000000000000000, -1.000000000000000000, 0.0000000000000000000 ) ) ;
#112 = CARTESIAN_POINT ( 'NONE',  ( 1.047444401652940007E-13, -2.800000000000007372, 30.00000000000000000 ) ) ;
#113 = AXIS2_PLACEMENT_3D ( 'NONE', #240, #177, #181 ) ;
#114 = DIRECTION ( 'NONE',  ( 3.491481338843133355E-15, -1.224646799147353207E-16, 1.000000000000000000 ) ) ;
#115 = ADVANCED_BREP_SHAPE_REPRESENTATION ( '49281', ( #206, #44, #15 ), #72 ) ;
#116 = AXIS2_PLACEMENT_3D ( 'NONE', #21, #241, #73 ) ;
#117 = CC_DESIGN_PERSON_AND_ORGANIZATION_ASSIGNMENT ( #108, #186, ( #1 ) ) ;
#118 = DIRECTION ( 'NONE',  ( -3.491481338843133355E-15, 1.224646799147353207E-16, -1.000000000000000000 ) ) ;
#119 = CC_DESIGN_DATE_AND_TIME_ASSIGNMENT ( #102, #62, ( #1 ) ) ;
#120 = CYLINDRICAL_SURFACE ( 'NONE', #99, 3.000000000000000444 ) ;
#121 = APPROVAL_STATUS ( 'not_yet_approved' ) ;
#122 = EDGE_LOOP ( 'NONE', ( #161 ) ) ;
#123 = AXIS2_PLACEMENT_3D ( 'NONE', #100, #83, #159 ) ;
#124 = FACE_OUTER_BOUND ( 'NONE', #103, .T. ) ;
#125 = COORDINATED_UNIVERSAL_TIME_OFFSET ( 1, 0, .AHEAD. ) ;
#126 = DIRECTION ( 'NONE',  ( -3.491481338843133355E-15, 1.224646799147353207E-16, -1.000000000000000000 ) ) ;
#127 = DIRECTION ( 'NONE',  ( -3.491481338843133355E-15, 1.224646799147353207E-16, -1.000000000000000000 ) ) ;
#128 = MECHANICAL_CONTEXT ( 'NONE', #59, 'mechanical' ) ;
#129 = CARTESIAN_POINT ( 'NONE',  ( 0.0000000000000000000, 0.0000000000000000000, 0.0000000000000000000 ) ) ;
#130 = CARTESIAN_POINT ( 'NONE',  ( 2.286920276942252663E-13, 2.999999999999992450, 65.50000000000000000 ) ) ;
#131 = APPROVAL_PERSON_ORGANIZATION ( #197, #229, #145 ) ;
#132 = VERTEX_POINT ( 'NONE', #225 ) ;
#133 = DIRECTION ( 'NONE',  ( -3.491481338843133355E-15, 1.224913660227414450E-16, -1.000000000000000000 ) ) ;
#134 = PRODUCT_DEFINITION_FORMATION_WITH_SPECIFIED_SOURCE ( 'ANY', '', #93, .NOT_KNOWN. ) ;
#135 = EDGE_CURVE ( 'NONE', #146, #146, #137, .T. ) ;
#136 = CARTESIAN_POINT ( 'NONE',  ( 0.0000000000000000000, 0.0000000000000000000, 0.0000000000000000000 ) ) ;
#137 = CIRCLE ( 'NONE', #113, 2.500000000000000000 ) ;
#138 = ORIENTED_EDGE ( 'NONE', *, *, #135, .F. ) ;
#139 = PERSON_AND_ORGANIZATION ( #57, #189 ) ;
#140 = EDGE_LOOP ( 'NONE', ( #6 ) ) ;
#141 = EDGE_LOOP ( 'NONE', ( #40 ) ) ;
#142 = FACE_OUTER_BOUND ( 'NONE', #63, .T. ) ;
#143 = PLANE ( 'NONE',  #149 ) ;
#144 = DIRECTION ( 'NONE',  ( 0.0000000000000000000, 0.0000000000000000000, 1.000000000000000000 ) ) ;
#145 = APPROVAL_ROLE ( '' ) ;
#146 = VERTEX_POINT ( 'NONE', #51 ) ;
#147 = EDGE_CURVE ( 'NONE', #198, #198, #33, .T. ) ;
#148 = FACE_OUTER_BOUND ( 'NONE', #141, .T. ) ;
#149 = AXIS2_PLACEMENT_3D ( 'NONE', #91, #114, #166 ) ;
#150 = CARTESIAN_POINT ( 'NONE',  ( 1.047444401652940007E-13, -3.674740980682243250E-15, 30.00000000000000000 ) ) ;
#151 = DIRECTION ( 'NONE',  ( 3.491481338843133355E-15, -1.224913660227414450E-16, 1.000000000000000000 ) ) ;
#152 =( NAMED_UNIT ( * ) SI_UNIT ( $, .STERADIAN. ) SOLID_ANGLE_UNIT ( ) );
#153 = APPROVAL ( #192, 'UNSPECIFIED' ) ;
#154 = AXIS2_PLACEMENT_3D ( 'NONE', #66, #218, #46 ) ;
#155 = LOCAL_TIME ( 14, 3, 56.00000000000000000, #156 ) ;
#156 = COORDINATED_UNIVERSAL_TIME_OFFSET ( 1, 0, .AHEAD. ) ;
#157 = ORIENTED_EDGE ( 'NONE', *, *, #147, .F. ) ;
#158 = PERSON_AND_ORGANIZATION ( #57, #189 ) ;
#159 = DIRECTION ( 'NONE',  ( 4.275831445896959482E-31, 1.000000000000000000, 1.224646799147353207E-16 ) ) ;
#160 = EDGE_CURVE ( 'NONE', #237, #237, #169, .T. ) ;
#161 = ORIENTED_EDGE ( 'NONE', *, *, #163, .T. ) ;
#162 = DIRECTION ( 'NONE',  ( 3.491481338843133355E-15, -1.224913660227414450E-16, 1.000000000000000000 ) ) ;
#163 = EDGE_CURVE ( 'NONE', #132, #132, #28, .T. ) ;
#164 = DIRECTION ( 'NONE',  ( 3.491481338843133355E-15, -1.224913660227414450E-16, 1.000000000000000000 ) ) ;
#165 = DIRECTION ( 'NONE',  ( -3.491481338843133355E-15, 1.224646799147353207E-16, -1.000000000000000000 ) ) ;
#166 = DIRECTION ( 'NONE',  ( -4.275831445896958607E-31, -1.000000000000000000, -1.224646799147353207E-16 ) ) ;
#167 = DIRECTION ( 'NONE',  ( -4.276763186378056353E-31, -1.000000000000000000, -1.224913660227414450E-16 ) ) ;
#168 = AXIS2_PLACEMENT_3D ( 'NONE', #223, #87, #71 ) ;
#169 = CIRCLE ( 'NONE', #176, 3.000000000000000888 ) ;
#170 = EDGE_LOOP ( 'NONE', ( #191 ) ) ;
#171 = AXIS2_PLACEMENT_3D ( 'NONE', #183, #165, #32 ) ;
#172 = PERSON_AND_ORGANIZATION_ROLE ( 'classification_officer' ) ;
#173 = COORDINATED_UNIVERSAL_TIME_OFFSET ( 1, 0, .AHEAD. ) ;
#174 = EDGE_LOOP ( 'NONE', ( #157 ) ) ;
#175 = EDGE_CURVE ( 'NONE', #53, #53, #196, .T. ) ;
#176 = AXIS2_PLACEMENT_3D ( 'NONE', #228, #127, #9 ) ;
#177 = DIRECTION ( 'NONE',  ( -3.491481338843133355E-15, 1.224646799147353207E-16, -1.000000000000000000 ) ) ;
#178 = FACE_BOUND ( 'NONE', #216, .T. ) ;
#179 = CC_DESIGN_SECURITY_CLASSIFICATION ( #207, ( #134 ) ) ;
#180 = FACE_OUTER_BOUND ( 'NONE', #140, .T. ) ;
#181 = DIRECTION ( 'NONE',  ( 0.0000000000000000000, 1.000000000000000000, 0.0000000000000000000 ) ) ;
#182 = CC_DESIGN_PERSON_AND_ORGANIZATION_ASSIGNMENT ( #139, #172, ( #207 ) ) ;
#183 = CARTESIAN_POINT ( 'NONE',  ( -1.282749433769087757E-30, 4.499279347985572824E-32, -3.673940397442059868E-16 ) ) ;
#184 = CC_DESIGN_DATE_AND_TIME_ASSIGNMENT ( #85, #193, ( #207 ) ) ;
#185 = PLANE ( 'NONE',  #154 ) ;
#186 = PERSON_AND_ORGANIZATION_ROLE ( 'creator' ) ;
#187 = DIRECTION ( 'NONE',  ( 4.275831445896958607E-31, 1.000000000000000000, 1.224646799147353207E-16 ) ) ;
#188 = PLANE ( 'NONE',  #116 ) ;
#189 = ORGANIZATION ( 'UNSPECIFIED', 'UNSPECIFIED', '' ) ;
#190 = CALENDAR_DATE ( 2021, 15, 11 ) ;
#191 = ORIENTED_EDGE ( 'NONE', *, *, #226, .F. ) ;
#192 = APPROVAL_STATUS ( 'not_yet_approved' ) ;
#193 = DATE_TIME_ROLE ( 'classification_date' ) ;
#194 = CARTESIAN_POINT ( 'NONE',  ( 2.094888803305879382E-14, -7.349481961364484725E-16, 5.999999999999998224 ) ) ;
#195 = APPROVAL_ROLE ( '' ) ;
#196 = CIRCLE ( 'NONE', #168, 3.000000000000000000 ) ;
#197 = PERSON_AND_ORGANIZATION ( #57, #189 ) ;
#198 = VERTEX_POINT ( 'NONE', #227 ) ;
#199 = CARTESIAN_POINT ( 'NONE',  ( 1.047444401652940007E-13, 2.800000000000000266, 30.00000000000000000 ) ) ;
#200 = CC_DESIGN_APPROVAL ( #27, ( #207 ) ) ;
#201 = ADVANCED_FACE ( 'NONE', ( #26, #148 ), #55, .T. ) ;
#202 = VERTEX_POINT ( 'NONE', #11 ) ;
#203 = DIRECTION ( 'NONE',  ( 0.0000000000000000000, 1.000000000000000000, 0.0000000000000000000 ) ) ;
#204 = APPROVAL_PERSON_ORGANIZATION ( #39, #27, #23 ) ;
#205 =( NAMED_UNIT ( * ) PLANE_ANGLE_UNIT ( ) SI_UNIT ( $, .RADIAN. ) );
#206 = MANIFOLD_SOLID_BREP ( 'Corps-Déplacer/Copier1[1]', #81 ) ;
#207 = SECURITY_CLASSIFICATION ( '', '', #214 ) ;
#208 = FACE_OUTER_BOUND ( 'NONE', #36, .T. ) ;
#209 = DESIGN_CONTEXT ( 'detailed design', #90, 'design' ) ;
#210 = AXIS2_PLACEMENT_3D ( 'NONE', #150, #164, #14 ) ;
#211 = FACE_OUTER_BOUND ( 'NONE', #232, .T. ) ;
#212 = PRODUCT_RELATED_PRODUCT_CATEGORY ( 'detail', '', ( #93 ) ) ;
#213 = CC_DESIGN_APPROVAL ( #153, ( #1 ) ) ;
#214 = SECURITY_CLASSIFICATION_LEVEL ( 'unclassified' ) ;
#215 = EDGE_LOOP ( 'NONE', ( #79 ) ) ;
#216 = EDGE_LOOP ( 'NONE', ( #233 ) ) ;
#217 = AXIS2_PLACEMENT_3D ( 'NONE', #220, #106, #203 ) ;
#218 = DIRECTION ( 'NONE',  ( 3.491481338843133355E-15, -1.224646799147353207E-16, 1.000000000000000000 ) ) ;
#219 = DATE_AND_TIME ( #3, #155 ) ;
#220 = CARTESIAN_POINT ( 'NONE',  ( 2.286920276942252663E-13, -8.021436534415164826E-15, 65.50000000000000000 ) ) ;
#221 = PERSON_AND_ORGANIZATION ( #57, #189 ) ;
#222 = APPROVAL_DATE_TIME ( #42, #27 ) ;
#223 = CARTESIAN_POINT ( 'NONE',  ( 2.286920276942252663E-13, -8.021436534415164826E-15, 65.50000000000000000 ) ) ;
#224 = AXIS2_PLACEMENT_3D ( 'NONE', #199, #133, #109 ) ;
#225 = CARTESIAN_POINT ( 'NONE',  ( 2.094888803305879382E-14, -2.800000000000004707, 5.999999999999998224 ) ) ;
#226 = EDGE_CURVE ( 'NONE', #31, #31, #76, .T. ) ;
#227 = CARTESIAN_POINT ( 'NONE',  ( 0.0000000000000000000, 3.000000000000000000, 0.0000000000000000000 ) ) ;
#228 = CARTESIAN_POINT ( 'NONE',  ( 2.094888803305879382E-14, -7.347880794884117764E-16, 5.999999999999998224 ) ) ;
#229 = APPROVAL ( #10, 'UNSPECIFIED' ) ;
#230 = ORIENTED_EDGE ( 'NONE', *, *, #163, .F. ) ;
#231 = ADVANCED_FACE ( 'NONE', ( #13, #70 ), #242, .T. ) ;
#232 = EDGE_LOOP ( 'NONE', ( #138 ) ) ;
#233 = ORIENTED_EDGE ( 'NONE', *, *, #135, .T. ) ;
#234 = LOCAL_TIME ( 14, 3, 56.00000000000000000, #125 ) ;
#235 = SHAPE_DEFINITION_REPRESENTATION ( #7, #115 ) ;
#236 = ORIENTED_EDGE ( 'NONE', *, *, #160, .T. ) ;
#237 = VERTEX_POINT ( 'NONE', #54 ) ;
#238 = CALENDAR_DATE ( 2021, 15, 11 ) ;
#239 = PERSON_AND_ORGANIZATION_ROLE ( 'creator' ) ;
#240 = CARTESIAN_POINT ( 'NONE',  ( 2.304377683636468267E-13, -8.082668874372532400E-15, 66.00000000000000000 ) ) ;
#241 = DIRECTION ( 'NONE',  ( -3.491481338843133355E-15, 1.224646799147353207E-16, -1.000000000000000000 ) ) ;
#242 = CYLINDRICAL_SURFACE ( 'NONE', #2, 2.800000000000003819 ) ;
#243 = CONICAL_SURFACE ( 'NONE', #217, 3.000000000000000000, 0.7853981633974479459 ) ;
ENDSEC;
END-ISO-10303-21;
