ISO-10303-21;
HEADER;
FILE_DESCRIPTION (( 'STEP AP203' ),
    '1' );
FILE_NAME ('49082.step',
    '2021-10-08T05:53:55',
    ( '' ),
    ( '' ),
    'SwSTEP 2.0',
    'SolidWorks 2019',
    '' );
FILE_SCHEMA (( 'CONFIG_CONTROL_DESIGN' ));
ENDSEC;

DATA;
#1 = EDGE_LOOP ( 'NONE', ( #139 ) ) ;
#2 = CLOSED_SHELL ( 'NONE', ( #98, #146, #142, #71, #9 ) ) ;
#3 = CALENDAR_DATE ( 2021, 8, 10 ) ;
#4 = DIRECTION ( 'NONE',  ( 0.0000000000000000000, 1.000000000000000000, 0.0000000000000000000 ) ) ;
#5 = APPROVAL_PERSON_ORGANIZATION ( #155, #123, #45 ) ;
#6 = EDGE_CURVE ( 'NONE', #221, #221, #87, .T. ) ;
#7 = DIRECTION ( 'NONE',  ( 0.0000000000000000000, 1.000000000000000000, 0.0000000000000000000 ) ) ;
#8 = DIRECTION ( 'NONE',  ( -3.491481338843133355E-15, 1.224646799147353207E-16, -1.000000000000000000 ) ) ;
#9 = ADVANCED_FACE ( 'NONE', ( #159 ), #131, .F. ) ;
#10 = DIRECTION ( 'NONE',  ( -3.491481338843133355E-15, 1.224646799147353207E-16, -1.000000000000000000 ) ) ;
#11 = APPLICATION_PROTOCOL_DEFINITION ( 'international standard', 'config_control_design', 1994, #195 ) ;
#12 = AXIS2_PLACEMENT_3D ( 'NONE', #194, #161, #179 ) ;
#13 = COORDINATED_UNIVERSAL_TIME_OFFSET ( 1, 0, .AHEAD. ) ;
#14 = CARTESIAN_POINT ( 'NONE',  ( 0.0000000000000000000, 0.0000000000000000000, 0.0000000000000000000 ) ) ;
#15 = CONICAL_SURFACE ( 'NONE', #12, 0.9999999999999978906, 0.5235987755982871583 ) ;
#16 = ORIENTED_EDGE ( 'NONE', *, *, #132, .T. ) ;
#17 = COORDINATED_UNIVERSAL_TIME_OFFSET ( 1, 0, .AHEAD. ) ;
#18 = EDGE_LOOP ( 'NONE', ( #171 ) ) ;
#19 = PRODUCT_DEFINITION ( 'UNKNOWN', '', #174, #85 ) ;
#20 = FACE_OUTER_BOUND ( 'NONE', #100, .T. ) ;
#21 = LOCAL_TIME ( 7, 53, 55.00000000000000000, #90 ) ;
#22 = APPROVAL_ROLE ( '' ) ;
#23 = FACE_BOUND ( 'NONE', #1, .T. ) ;
#24 = PERSON ( 'UNSPECIFIED', 'UNSPECIFIED', 'UNSPECIFIED', ('UNSPECIFIED'), ('UNSPECIFIED'), ('UNSPECIFIED') ) ;
#25 = CARTESIAN_POINT ( 'NONE',  ( 1.814226921766493129E-15, -6.363451432349507310E-17, 0.5196152422706685758 ) ) ;
#26 = DIRECTION ( 'NONE',  ( 4.275831445896958607E-31, 1.000000000000000000, 1.224646799147353207E-16 ) ) ;
#27 = FACE_OUTER_BOUND ( 'NONE', #73, .T. ) ;
#28 = PERSON_AND_ORGANIZATION_ROLE ( 'creator' ) ;
#29 = DIRECTION ( 'NONE',  ( 0.0000000000000000000, 0.0000000000000000000, 1.000000000000000000 ) ) ;
#30 = CALENDAR_DATE ( 2021, 8, 10 ) ;
#31 = ADVANCED_FACE ( 'NONE', ( #43 ), #165, .T. ) ;
#32 = ORIENTED_EDGE ( 'NONE', *, *, #77, .F. ) ;
#33 = AXIS2_PLACEMENT_3D ( 'NONE', #69, #57, #211 ) ;
#34 = CALENDAR_DATE ( 2021, 8, 10 ) ;
#35 = DIRECTION ( 'NONE',  ( 3.491481338843133355E-15, -1.224646799147353207E-16, 1.000000000000000000 ) ) ;
#36 = PRODUCT_DEFINITION_SHAPE ( 'NONE', 'NONE',  #19 ) ;
#37 = DIRECTION ( 'NONE',  ( -3.491481338843133355E-15, 1.224646799147353207E-16, -1.000000000000000000 ) ) ;
#38 = AXIS2_PLACEMENT_3D ( 'NONE', #41, #72, #181 ) ;
#39 = SHAPE_DEFINITION_REPRESENTATION ( #36, #115 ) ;
#40 = ORGANIZATION ( 'UNSPECIFIED', 'UNSPECIFIED', '' ) ;
#41 = CARTESIAN_POINT ( 'NONE',  ( 4.189777606611760026E-14, 6.748919021978346919E-33, 12.00000000000000000 ) ) ;
#42 = CARTESIAN_POINT ( 'NONE',  ( 0.0000000000000000000, 0.0000000000000000000, 0.0000000000000000000 ) ) ;
#43 = FACE_OUTER_BOUND ( 'NONE', #18, .T. ) ;
#44 = CIRCLE ( 'NONE', #170, 0.8999999999999990230 ) ;
#45 = APPROVAL_ROLE ( '' ) ;
#46 = CARTESIAN_POINT ( 'NONE',  ( 4.189777606611760026E-14, 0.8999999999999998002, 12.00000000000000000 ) ) ;
#47 = PRODUCT ( '49082', '49082', '', ( #113 ) ) ;
#48 = AXIS2_PLACEMENT_3D ( 'NONE', #112, #8, #60 ) ;
#49 =( GEOMETRIC_REPRESENTATION_CONTEXT ( 3 ) GLOBAL_UNCERTAINTY_ASSIGNED_CONTEXT ( ( #130 ) ) GLOBAL_UNIT_ASSIGNED_CONTEXT ( ( #217, #184, #154 ) ) REPRESENTATION_CONTEXT ( 'NONE', 'WORKASPACE' ) );
#50 = PERSON_AND_ORGANIZATION ( #24, #40 ) ;
#51 = ORIENTED_EDGE ( 'NONE', *, *, #111, .T. ) ;
#52 = CARTESIAN_POINT ( 'NONE',  ( 4.189777606611760026E-14, -1.469576158976823947E-15, 12.00000000000000000 ) ) ;
#53 = MANIFOLD_SOLID_BREP ( 'Corps-Déplacer/Copier1[2]', #70 ) ;
#54 = APPROVAL_STATUS ( 'not_yet_approved' ) ;
#55 = CIRCLE ( 'NONE', #210, 0.9999999999999978906 ) ;
#56 = LOCAL_TIME ( 7, 53, 55.00000000000000000, #17 ) ;
#57 = DIRECTION ( 'NONE',  ( -3.491481338843133355E-15, 1.224646799147353207E-16, -1.000000000000000000 ) ) ;
#58 = ADVANCED_FACE ( 'NONE', ( #196 ), #66, .T. ) ;
#59 = LOCAL_TIME ( 7, 53, 55.00000000000000000, #182 ) ;
#60 = DIRECTION ( 'NONE',  ( 0.0000000000000000000, 1.000000000000000000, 0.0000000000000000000 ) ) ;
#61 = DIRECTION ( 'NONE',  ( -4.279844320860528400E-31, -1.000000000000000000, -1.204669080539450576E-16 ) ) ;
#62 = PERSON_AND_ORGANIZATION ( #24, #40 ) ;
#63 = CARTESIAN_POINT ( 'NONE',  ( 4.189777606611760026E-14, 0.8999999999999998002, 12.00000000000000000 ) ) ;
#64 = ORIENTED_EDGE ( 'NONE', *, *, #132, .F. ) ;
#65 = CARTESIAN_POINT ( 'NONE',  ( 4.250251837337308851E-14, 0.9999999999999963363, 12.17320508075688679 ) ) ;
#66 = CONICAL_SURFACE ( 'NONE', #192, 0.8999999999999990230, 1.047197551196592746 ) ;
#67 = ORIENTED_EDGE ( 'NONE', *, *, #77, .T. ) ;
#68 = PERSON_AND_ORGANIZATION ( #24, #40 ) ;
#69 = CARTESIAN_POINT ( 'NONE',  ( 0.0000000000000000000, 0.0000000000000000000, 0.0000000000000000000 ) ) ;
#70 = CLOSED_SHELL ( 'NONE', ( #58, #91, #31 ) ) ;
#71 = ADVANCED_FACE ( 'NONE', ( #27, #89 ), #222, .T. ) ;
#72 = DIRECTION ( 'NONE',  ( 3.491481338843133355E-15, -1.224646799147353207E-16, 1.000000000000000000 ) ) ;
#73 = EDGE_LOOP ( 'NONE', ( #32 ) ) ;
#74 = APPROVAL_PERSON_ORGANIZATION ( #118, #96, #116 ) ;
#75 = DIRECTION ( 'NONE',  ( -3.491481338843133355E-15, 1.224646799147353207E-16, -1.000000000000000000 ) ) ;
#76 = DIRECTION ( 'NONE',  ( 4.275831445896958607E-31, 1.000000000000000000, 1.224646799147353207E-16 ) ) ;
#77 = EDGE_CURVE ( 'NONE', #152, #152, #160, .T. ) ;
#78 = SECURITY_CLASSIFICATION_LEVEL ( 'unclassified' ) ;
#79 = AXIS2_PLACEMENT_3D ( 'NONE', #14, #29, #136 ) ;
#80 = CARTESIAN_POINT ( 'NONE',  ( 1.326762908760390423E-13, 0.7999999999999962697, 38.00000000000000000 ) ) ;
#81 = EDGE_LOOP ( 'NONE', ( #51 ) ) ;
#82 = PERSON_AND_ORGANIZATION ( #24, #40 ) ;
#83 = LOCAL_TIME ( 7, 53, 55.00000000000000000, #153 ) ;
#84 = ORIENTED_EDGE ( 'NONE', *, *, #149, .T. ) ;
#85 = DESIGN_CONTEXT ( 'detailed design', #195, 'design' ) ;
#86 = EDGE_LOOP ( 'NONE', ( #64 ) ) ;
#87 = CIRCLE ( 'NONE', #48, 0.9000000000000012434 ) ;
#88 = APPROVAL_PERSON_ORGANIZATION ( #212, #183, #22 ) ;
#89 = FACE_BOUND ( 'NONE', #223, .T. ) ;
#90 = COORDINATED_UNIVERSAL_TIME_OFFSET ( 1, 0, .AHEAD. ) ;
#91 = ADVANCED_FACE ( 'NONE', ( #180, #129 ), #151, .T. ) ;
#92 = FACE_OUTER_BOUND ( 'NONE', #81, .T. ) ;
#93 = CARTESIAN_POINT ( 'NONE',  ( 1.326762908760390423E-13, -4.653657836759941941E-15, 38.00000000000000000 ) ) ;
#94 = DIRECTION ( 'NONE',  ( -3.491481338843133355E-15, 1.224646799147353207E-16, -1.000000000000000000 ) ) ;
#95 = AXIS2_PLACEMENT_3D ( 'NONE', #190, #35, #147 ) ;
#96 = APPROVAL ( #203, 'UNSPECIFIED' ) ;
#97 = DATE_TIME_ROLE ( 'creation_date' ) ;
#98 = ADVANCED_FACE ( 'NONE', ( #216 ), #122, .F. ) ;
#99 = DATE_AND_TIME ( #138, #208 ) ;
#100 = EDGE_LOOP ( 'NONE', ( #67 ) ) ;
#101 = VERTEX_POINT ( 'NONE', #168 ) ;
#102 = PERSON_AND_ORGANIZATION ( #24, #40 ) ;
#103 = EDGE_LOOP ( 'NONE', ( #105 ) ) ;
#104 = CC_DESIGN_PERSON_AND_ORGANIZATION_ASSIGNMENT ( #82, #206, ( #47 ) ) ;
#105 = ORIENTED_EDGE ( 'NONE', *, *, #149, .F. ) ;
#106 = DIRECTION ( 'NONE',  ( 4.279844320860528400E-31, 1.000000000000000000, 1.204669080539450576E-16 ) ) ;
#107 = DIRECTION ( 'NONE',  ( 0.0000000000000000000, 1.000000000000000000, 0.0000000000000000000 ) ) ;
#108 = AXIS2_PLACEMENT_3D ( 'NONE', #176, #75, #150 ) ;
#109 = CYLINDRICAL_SURFACE ( 'NONE', #33, 0.9999999999999993339 ) ;
#110 = CARTESIAN_POINT ( 'NONE',  ( 4.250251837337308851E-14, -1.490787663751321874E-15, 12.17320508075688679 ) ) ;
#111 = EDGE_CURVE ( 'NONE', #199, #199, #55, .T. ) ;
#112 = CARTESIAN_POINT ( 'NONE',  ( 4.189777606611760026E-14, -1.469576158976823947E-15, 12.00000000000000000 ) ) ;
#113 = MECHANICAL_CONTEXT ( 'NONE', #128, 'mechanical' ) ;
#114 = VERTEX_POINT ( 'NONE', #80 ) ;
#115 = ADVANCED_BREP_SHAPE_REPRESENTATION ( '49082', ( #205, #53, #79 ), #49 ) ;
#116 = APPROVAL_ROLE ( '' ) ;
#117 = APPROVAL_DATE_TIME ( #209, #123 ) ;
#118 = PERSON_AND_ORGANIZATION ( #24, #40 ) ;
#119 = EDGE_LOOP ( 'NONE', ( #16 ) ) ;
#120 = CC_DESIGN_DATE_AND_TIME_ASSIGNMENT ( #144, #188, ( #185 ) ) ;
#121 = CIRCLE ( 'NONE', #214, 0.8000000000000009326 ) ;
#122 = PLANE ( 'NONE',  #95 ) ;
#123 = APPROVAL ( #157, 'UNSPECIFIED' ) ;
#124 = DIRECTION ( 'NONE',  ( -3.491481338843133355E-15, 1.224646799147353207E-16, -1.000000000000000000 ) ) ;
#125 = APPROVAL_DATE_TIME ( #172, #183 ) ;
#126 = AXIS2_PLACEMENT_3D ( 'NONE', #42, #215, #26 ) ;
#127 = CC_DESIGN_APPROVAL ( #123, ( #19 ) ) ;
#128 = APPLICATION_CONTEXT ( 'configuration controlled 3d designs of mechanical parts and assemblies' ) ;
#129 = FACE_OUTER_BOUND ( 'NONE', #133, .T. ) ;
#130 = UNCERTAINTY_MEASURE_WITH_UNIT (LENGTH_MEASURE( 1.000000000000000082E-05 ), #217, 'distance_accuracy_value', 'NONE');
#131 = PLANE ( 'NONE',  #207 ) ;
#132 = EDGE_CURVE ( 'NONE', #101, #101, #44, .T. ) ;
#133 = EDGE_LOOP ( 'NONE', ( #141 ) ) ;
#134 = VERTEX_POINT ( 'NONE', #63 ) ;
#135 = CIRCLE ( 'NONE', #177, 0.9000000000000012434 ) ;
#136 = DIRECTION ( 'NONE',  ( 1.000000000000000000, 0.0000000000000000000, 0.0000000000000000000 ) ) ;
#137 = DATE_AND_TIME ( #218, #83 ) ;
#138 = CALENDAR_DATE ( 2021, 8, 10 ) ;
#139 = ORIENTED_EDGE ( 'NONE', *, *, #6, .F. ) ;
#140 = CC_DESIGN_APPROVAL ( #183, ( #185 ) ) ;
#141 = ORIENTED_EDGE ( 'NONE', *, *, #143, .T. ) ;
#142 = ADVANCED_FACE ( 'NONE', ( #173, #20 ), #109, .T. ) ;
#143 = EDGE_CURVE ( 'NONE', #134, #134, #135, .T. ) ;
#144 = DATE_AND_TIME ( #3, #56 ) ;
#145 = DIRECTION ( 'NONE',  ( 3.491481338843133355E-15, -1.224646799147353207E-16, 1.000000000000000000 ) ) ;
#146 = ADVANCED_FACE ( 'NONE', ( #23, #92 ), #15, .T. ) ;
#147 = DIRECTION ( 'NONE',  ( -4.275831445896958607E-31, -1.000000000000000000, -1.224646799147353207E-16 ) ) ;
#148 = DIRECTION ( 'NONE',  ( -3.491481338843133355E-15, 1.224646799147353207E-16, -1.000000000000000000 ) ) ;
#149 = EDGE_CURVE ( 'NONE', #114, #114, #121, .T. ) ;
#150 = DIRECTION ( 'NONE',  ( 0.0000000000000000000, 1.000000000000000000, 0.0000000000000000000 ) ) ;
#151 = CYLINDRICAL_SURFACE ( 'NONE', #126, 0.9000000000000002442 ) ;
#152 = VERTEX_POINT ( 'NONE', #167 ) ;
#153 = COORDINATED_UNIVERSAL_TIME_OFFSET ( 1, 0, .AHEAD. ) ;
#154 =( NAMED_UNIT ( * ) SI_UNIT ( $, .STERADIAN. ) SOLID_ANGLE_UNIT ( ) );
#155 = PERSON_AND_ORGANIZATION ( #24, #40 ) ;
#156 = EDGE_LOOP ( 'NONE', ( #220 ) ) ;
#157 = APPROVAL_STATUS ( 'not_yet_approved' ) ;
#158 = ORIENTED_EDGE ( 'NONE', *, *, #111, .F. ) ;
#159 = FACE_OUTER_BOUND ( 'NONE', #103, .T. ) ;
#160 = CIRCLE ( 'NONE', #108, 1.000000000000000888 ) ;
#161 = DIRECTION ( 'NONE',  ( 3.491481338843133355E-15, -1.224646799147353207E-16, 1.000000000000000000 ) ) ;
#162 = DIRECTION ( 'NONE',  ( -3.491481338843133355E-15, 1.224646799147353207E-16, -1.000000000000000000 ) ) ;
#163 = CARTESIAN_POINT ( 'NONE',  ( 1.326762908760390423E-13, -4.653657836759941941E-15, 38.00000000000000000 ) ) ;
#164 = CC_DESIGN_APPROVAL ( #96, ( #174 ) ) ;
#165 = PLANE ( 'NONE',  #38 ) ;
#166 = PERSON_AND_ORGANIZATION_ROLE ( 'design_supplier' ) ;
#167 = CARTESIAN_POINT ( 'NONE',  ( 1.319779946082704535E-13, 0.9999999999999963363, 37.79999999999999716 ) ) ;
#168 = CARTESIAN_POINT ( 'NONE',  ( 1.814226921766493524E-15, 0.8999999999999989120, 0.5196152422706686869 ) ) ;
#169 = EDGE_LOOP ( 'NONE', ( #158 ) ) ;
#170 = AXIS2_PLACEMENT_3D ( 'NONE', #213, #124, #106 ) ;
#171 = ORIENTED_EDGE ( 'NONE', *, *, #143, .F. ) ;
#172 = DATE_AND_TIME ( #34, #21 ) ;
#173 = FACE_OUTER_BOUND ( 'NONE', #169, .T. ) ;
#174 = PRODUCT_DEFINITION_FORMATION_WITH_SPECIFIED_SOURCE ( 'ANY', '', #47, .NOT_KNOWN. ) ;
#175 = CC_DESIGN_PERSON_AND_ORGANIZATION_ASSIGNMENT ( #50, #187, ( #174 ) ) ;
#176 = CARTESIAN_POINT ( 'NONE',  ( 1.319779946082704535E-13, -4.629164900776995227E-15, 37.79999999999999716 ) ) ;
#177 = AXIS2_PLACEMENT_3D ( 'NONE', #52, #37, #107 ) ;
#178 = CC_DESIGN_PERSON_AND_ORGANIZATION_ASSIGNMENT ( #62, #28, ( #19 ) ) ;
#179 = DIRECTION ( 'NONE',  ( 0.0000000000000000000, -1.000000000000000000, 0.0000000000000000000 ) ) ;
#180 = FACE_OUTER_BOUND ( 'NONE', #86, .T. ) ;
#181 = DIRECTION ( 'NONE',  ( -4.275831445896958607E-31, -1.000000000000000000, -1.224646799147353207E-16 ) ) ;
#182 = COORDINATED_UNIVERSAL_TIME_OFFSET ( 1, 0, .AHEAD. ) ;
#183 = APPROVAL ( #54, 'UNSPECIFIED' ) ;
#184 =( NAMED_UNIT ( * ) PLANE_ANGLE_UNIT ( ) SI_UNIT ( $, .RADIAN. ) );
#185 = SECURITY_CLASSIFICATION ( '', '', #78 ) ;
#186 = APPROVAL_DATE_TIME ( #99, #96 ) ;
#187 = PERSON_AND_ORGANIZATION_ROLE ( 'creator' ) ;
#188 = DATE_TIME_ROLE ( 'classification_date' ) ;
#189 = CC_DESIGN_DATE_AND_TIME_ASSIGNMENT ( #137, #97, ( #19 ) ) ;
#190 = CARTESIAN_POINT ( 'NONE',  ( 4.189777606611760026E-14, 6.748919021978346919E-33, 12.00000000000000000 ) ) ;
#191 = DIRECTION ( 'NONE',  ( 0.0000000000000000000, 1.000000000000000000, 0.0000000000000000000 ) ) ;
#192 = AXIS2_PLACEMENT_3D ( 'NONE', #25, #145, #61 ) ;
#193 = PERSON_AND_ORGANIZATION_ROLE ( 'classification_officer' ) ;
#194 = CARTESIAN_POINT ( 'NONE',  ( 4.250251837337308851E-14, -1.490787663751321874E-15, 12.17320508075688679 ) ) ;
#195 = APPLICATION_CONTEXT ( 'configuration controlled 3d designs of mechanical parts and assemblies' ) ;
#196 = FACE_OUTER_BOUND ( 'NONE', #119, .T. ) ;
#197 = CARTESIAN_POINT ( 'NONE',  ( 1.326762908760390423E-13, 5.999039130647367482E-33, 38.00000000000000000 ) ) ;
#198 = CC_DESIGN_PERSON_AND_ORGANIZATION_ASSIGNMENT ( #102, #166, ( #174 ) ) ;
#199 = VERTEX_POINT ( 'NONE', #65 ) ;
#200 = AXIS2_PLACEMENT_3D ( 'NONE', #163, #10, #4 ) ;
#201 = CC_DESIGN_SECURITY_CLASSIFICATION ( #185, ( #174 ) ) ;
#202 = APPLICATION_PROTOCOL_DEFINITION ( 'international standard', 'config_control_design', 1994, #128 ) ;
#203 = APPROVAL_STATUS ( 'not_yet_approved' ) ;
#204 = PRODUCT_RELATED_PRODUCT_CATEGORY ( 'detail', '', ( #47 ) ) ;
#205 = MANIFOLD_SOLID_BREP ( 'Corps-Déplacer/Copier1[1]', #2 ) ;
#206 = PERSON_AND_ORGANIZATION_ROLE ( 'design_owner' ) ;
#207 = AXIS2_PLACEMENT_3D ( 'NONE', #197, #148, #76 ) ;
#208 = LOCAL_TIME ( 7, 53, 55.00000000000000000, #13 ) ;
#209 = DATE_AND_TIME ( #30, #59 ) ;
#210 = AXIS2_PLACEMENT_3D ( 'NONE', #110, #94, #191 ) ;
#211 = DIRECTION ( 'NONE',  ( 4.275831445896957731E-31, 1.000000000000000000, 1.224646799147353207E-16 ) ) ;
#212 = PERSON_AND_ORGANIZATION ( #24, #40 ) ;
#213 = CARTESIAN_POINT ( 'NONE',  ( 1.814226921766493129E-15, -6.363451432349507310E-17, 0.5196152422706685758 ) ) ;
#214 = AXIS2_PLACEMENT_3D ( 'NONE', #93, #162, #7 ) ;
#215 = DIRECTION ( 'NONE',  ( -3.491481338843133355E-15, 1.224646799147353207E-16, -1.000000000000000000 ) ) ;
#216 = FACE_OUTER_BOUND ( 'NONE', #156, .T. ) ;
#217 =( LENGTH_UNIT ( ) NAMED_UNIT ( * ) SI_UNIT ( .MILLI., .METRE. ) );
#218 = CALENDAR_DATE ( 2021, 8, 10 ) ;
#219 = CC_DESIGN_PERSON_AND_ORGANIZATION_ASSIGNMENT ( #68, #193, ( #185 ) ) ;
#220 = ORIENTED_EDGE ( 'NONE', *, *, #6, .T. ) ;
#221 = VERTEX_POINT ( 'NONE', #46 ) ;
#222 = CONICAL_SURFACE ( 'NONE', #200, 0.8000000000000009326, 0.7853981633974512766 ) ;
#223 = EDGE_LOOP ( 'NONE', ( #84 ) ) ;
ENDSEC;
END-ISO-10303-21;
