ISO-10303-21;
HEADER;
FILE_DESCRIPTION (( 'STEP AP203' ),
    '1' );
FILE_NAME ('49023.step',
    '2021-11-24T14:55:43',
    ( '' ),
    ( '' ),
    'SwSTEP 2.0',
    'SolidWorks 2019',
    '' );
FILE_SCHEMA (( 'CONFIG_CONTROL_DESIGN' ));
ENDSEC;

DATA;
#1 = PRODUCT_DEFINITION_FORMATION_WITH_SPECIFIED_SOURCE ( 'ANY', '', #82, .NOT_KNOWN. ) ;
#2 = EDGE_LOOP ( 'NONE', ( #188 ) ) ;
#3 = PRODUCT_RELATED_PRODUCT_CATEGORY ( 'detail', '', ( #82 ) ) ;
#4 = FACE_OUTER_BOUND ( 'NONE', #93, .T. ) ;
#5 = FACE_BOUND ( 'NONE', #33, .T. ) ;
#6 = CARTESIAN_POINT ( 'NONE',  ( 1.885399922975282546E-14, 5.999999999999991118, 5.399999999999972822 ) ) ;
#7 = DIRECTION ( 'NONE',  ( 3.491481338843133355E-15, -1.224646799147353207E-16, 1.000000000000000000 ) ) ;
#8 = CARTESIAN_POINT ( 'NONE',  ( 1.885399922975282230E-14, -6.613092715395672954E-16, 5.399999999999971934 ) ) ;
#9 = CC_DESIGN_APPROVAL ( #91, ( #45 ) ) ;
#10 = CALENDAR_DATE ( 2021, 24, 11 ) ;
#11 = APPROVAL_STATUS ( 'not_yet_approved' ) ;
#12 = SHAPE_DEFINITION_REPRESENTATION ( #20, #154 ) ;
#13 = AXIS2_PLACEMENT_3D ( 'NONE', #193, #192, #141 ) ;
#14 = CC_DESIGN_PERSON_AND_ORGANIZATION_ASSIGNMENT ( #179, #42, ( #45 ) ) ;
#15 =( NAMED_UNIT ( * ) SI_UNIT ( $, .STERADIAN. ) SOLID_ANGLE_UNIT ( ) );
#16 = EDGE_LOOP ( 'NONE', ( #90 ) ) ;
#17 = AXIS2_PLACEMENT_3D ( 'NONE', #174, #160, #176 ) ;
#18 = APPROVAL_PERSON_ORGANIZATION ( #150, #26, #164 ) ;
#19 = VERTEX_POINT ( 'NONE', #36 ) ;
#20 = PRODUCT_DEFINITION_SHAPE ( 'NONE', 'NONE',  #156 ) ;
#21 = DIRECTION ( 'NONE',  ( -3.491481338843133355E-15, 1.224646799147353207E-16, -1.000000000000000000 ) ) ;
#22 = AXIS2_PLACEMENT_3D ( 'NONE', #190, #94, #38 ) ;
#23 = DIRECTION ( 'NONE',  ( 4.275831445896958607E-31, 1.000000000000000000, 1.224646799147352961E-16 ) ) ;
#24 = DIRECTION ( 'NONE',  ( 0.0000000000000000000, 1.000000000000000000, 0.0000000000000000000 ) ) ;
#25 = CARTESIAN_POINT ( 'NONE',  ( 0.0000000000000000000, 0.0000000000000000000, 0.0000000000000000000 ) ) ;
#26 = APPROVAL ( #106, 'UNSPECIFIED' ) ;
#27 = APPROVAL_ROLE ( '' ) ;
#28 = APPROVAL_DATE_TIME ( #89, #26 ) ;
#29 = APPROVAL_DATE_TIME ( #152, #91 ) ;
#30 = CIRCLE ( 'NONE', #53, 5.999999999999992006 ) ;
#31 = DATE_TIME_ROLE ( 'creation_date' ) ;
#32 = EDGE_LOOP ( 'NONE', ( #109 ) ) ;
#33 = EDGE_LOOP ( 'NONE', ( #140 ) ) ;
#34 = DESIGN_CONTEXT ( 'detailed design', #144, 'design' ) ;
#35 = PLANE ( 'NONE',  #22 ) ;
#36 = CARTESIAN_POINT ( 'NONE',  ( 2.548781377355487223E-13, 4.799999999999991829, 73.00000000000000000 ) ) ;
#37 = FACE_OUTER_BOUND ( 'NONE', #16, .T. ) ;
#38 = DIRECTION ( 'NONE',  ( -4.275831445896958607E-31, -1.000000000000000000, -1.224646799147353207E-16 ) ) ;
#39 = CARTESIAN_POINT ( 'NONE',  ( 2.548781377355487223E-13, -8.939921633775676859E-15, 73.00000000000000000 ) ) ;
#40 = PERSON_AND_ORGANIZATION_ROLE ( 'design_supplier' ) ;
#41 = CC_DESIGN_PERSON_AND_ORGANIZATION_ASSIGNMENT ( #137, #44, ( #82 ) ) ;
#42 = PERSON_AND_ORGANIZATION_ROLE ( 'classification_officer' ) ;
#43 = COORDINATED_UNIVERSAL_TIME_OFFSET ( 1, 0, .AHEAD. ) ;
#44 = PERSON_AND_ORGANIZATION_ROLE ( 'design_owner' ) ;
#45 = SECURITY_CLASSIFICATION ( '', '', #102 ) ;
#46 = ORIENTED_EDGE ( 'NONE', *, *, #62, .T. ) ;
#47 = AXIS2_PLACEMENT_3D ( 'NONE', #114, #66, #125 ) ;
#48 = DIRECTION ( 'NONE',  ( 0.0000000000000000000, 1.000000000000000000, 0.0000000000000000000 ) ) ;
#49 = PLANE ( 'NONE',  #177 ) ;
#50 = CC_DESIGN_DATE_AND_TIME_ASSIGNMENT ( #57, #202, ( #45 ) ) ;
#51 = DIRECTION ( 'NONE',  ( -4.275831445896958607E-31, -1.000000000000000000, -1.224646799147352961E-16 ) ) ;
#52 = FACE_BOUND ( 'NONE', #2, .T. ) ;
#53 = AXIS2_PLACEMENT_3D ( 'NONE', #8, #128, #146 ) ;
#54 = CC_DESIGN_DATE_AND_TIME_ASSIGNMENT ( #74, #31, ( #156 ) ) ;
#55 = DIRECTION ( 'NONE',  ( -4.275831445896958607E-31, -1.000000000000000000, -1.224646799147353207E-16 ) ) ;
#56 = PERSON_AND_ORGANIZATION ( #186, #78 ) ;
#57 = DATE_AND_TIME ( #10, #157 ) ;
#58 = CC_DESIGN_PERSON_AND_ORGANIZATION_ASSIGNMENT ( #200, #117, ( #156 ) ) ;
#59 = CONICAL_SURFACE ( 'NONE', #138, 0.5999999999999999778, 0.7853981633974502774 ) ;
#60 = MECHANICAL_CONTEXT ( 'NONE', #92, 'mechanical' ) ;
#61 = COORDINATED_UNIVERSAL_TIME_OFFSET ( 1, 0, .AHEAD. ) ;
#62 = EDGE_CURVE ( 'NONE', #143, #143, #88, .T. ) ;
#63 = ORIENTED_EDGE ( 'NONE', *, *, #104, .F. ) ;
#64 = EDGE_CURVE ( 'NONE', #19, #19, #99, .T. ) ;
#65 = CLOSED_SHELL ( 'NONE', ( #110, #96, #182, #80 ) ) ;
#66 = DIRECTION ( 'NONE',  ( -3.491481338843133355E-15, 1.224646799147353207E-16, -1.000000000000000000 ) ) ;
#67 =( LENGTH_UNIT ( ) NAMED_UNIT ( * ) SI_UNIT ( .MILLI., .METRE. ) );
#68 = VERTEX_POINT ( 'NONE', #159 ) ;
#69 = CARTESIAN_POINT ( 'NONE',  ( -2.565498867538174901E-31, 8.998558695971144279E-33, -7.347880794884117764E-17 ) ) ;
#70 = DIRECTION ( 'NONE',  ( -3.491481338843133355E-15, 1.224646799147353207E-16, -1.000000000000000000 ) ) ;
#71 = CLOSED_SHELL ( 'NONE', ( #194, #127, #133 ) ) ;
#72 = CC_DESIGN_APPROVAL ( #191, ( #156 ) ) ;
#73 = DIRECTION ( 'NONE',  ( 0.0000000000000000000, 0.0000000000000000000, 1.000000000000000000 ) ) ;
#74 = DATE_AND_TIME ( #181, #112 ) ;
#75 = AXIS2_PLACEMENT_3D ( 'NONE', #147, #83, #23 ) ;
#76 = AXIS2_PLACEMENT_3D ( 'NONE', #178, #21, #100 ) ;
#77 = EDGE_LOOP ( 'NONE', ( #46 ) ) ;
#78 = ORGANIZATION ( 'UNSPECIFIED', 'UNSPECIFIED', '' ) ;
#79 = CARTESIAN_POINT ( 'NONE',  ( 1.885399922975282546E-14, 5.999999999999991118, 5.399999999999972822 ) ) ;
#80 = ADVANCED_FACE ( 'NONE', ( #37 ), #195, .F. ) ;
#81 = FACE_OUTER_BOUND ( 'NONE', #77, .T. ) ;
#82 = PRODUCT ( '49023', '49023', '', ( #60 ) ) ;
#83 = DIRECTION ( 'NONE',  ( -3.491481338843133355E-15, 1.224646799147353207E-16, -1.000000000000000000 ) ) ;
#84 = CYLINDRICAL_SURFACE ( 'NONE', #76, 5.999999999999996447 ) ;
#85 = CARTESIAN_POINT ( 'NONE',  ( 0.0000000000000000000, 0.5999999999999999778, 0.0000000000000000000 ) ) ;
#86 = COORDINATED_UNIVERSAL_TIME_OFFSET ( 1, 0, .AHEAD. ) ;
#87 = COORDINATED_UNIVERSAL_TIME_OFFSET ( 1, 0, .AHEAD. ) ;
#88 = CIRCLE ( 'NONE', #75, 0.5999999999999999778 ) ;
#89 = DATE_AND_TIME ( #167, #173 ) ;
#90 = ORIENTED_EDGE ( 'NONE', *, *, #64, .F. ) ;
#91 = APPROVAL ( #11, 'UNSPECIFIED' ) ;
#92 = APPLICATION_CONTEXT ( 'configuration controlled 3d designs of mechanical parts and assemblies' ) ;
#93 = EDGE_LOOP ( 'NONE', ( #121 ) ) ;
#94 = DIRECTION ( 'NONE',  ( 3.491481338843133355E-15, -1.224646799147353207E-16, 1.000000000000000000 ) ) ;
#95 = LOCAL_TIME ( 15, 55, 43.00000000000000000, #43 ) ;
#96 = ADVANCED_FACE ( 'NONE', ( #130, #162 ), #84, .T. ) ;
#97 = VERTEX_POINT ( 'NONE', #6 ) ;
#98 = PLANE ( 'NONE',  #17 ) ;
#99 = CIRCLE ( 'NONE', #189, 4.800000000000000711 ) ;
#100 = DIRECTION ( 'NONE',  ( 4.275831445896958607E-31, 1.000000000000000000, 1.224646799147353454E-16 ) ) ;
#101 = MANIFOLD_SOLID_BREP ( 'Corps-Déplacer/Copier2[2]', #71 ) ;
#102 = SECURITY_CLASSIFICATION_LEVEL ( 'unclassified' ) ;
#103 = APPLICATION_PROTOCOL_DEFINITION ( 'international standard', 'config_control_design', 1994, #144 ) ;
#104 = EDGE_CURVE ( 'NONE', #142, #142, #30, .T. ) ;
#105 = CALENDAR_DATE ( 2021, 24, 11 ) ;
#106 = APPROVAL_STATUS ( 'not_yet_approved' ) ;
#107 = LOCAL_TIME ( 15, 55, 43.00000000000000000, #119 ) ;
#108 = EDGE_LOOP ( 'NONE', ( #63 ) ) ;
#109 = ORIENTED_EDGE ( 'NONE', *, *, #104, .T. ) ;
#110 = ADVANCED_FACE ( 'NONE', ( #4 ), #49, .F. ) ;
#111 = FACE_OUTER_BOUND ( 'NONE', #169, .T. ) ;
#112 = LOCAL_TIME ( 15, 55, 43.00000000000000000, #87 ) ;
#113 = FACE_OUTER_BOUND ( 'NONE', #32, .T. ) ;
#114 = CARTESIAN_POINT ( 'NONE',  ( 1.885399922975282230E-14, -6.613092715395672954E-16, 5.399999999999971934 ) ) ;
#115 = CARTESIAN_POINT ( 'NONE',  ( 2.548781377355487223E-13, -8.939921633775676859E-15, 73.00000000000000000 ) ) ;
#116 = PERSON_AND_ORGANIZATION_ROLE ( 'creator' ) ;
#117 = PERSON_AND_ORGANIZATION_ROLE ( 'creator' ) ;
#118 = PERSON_AND_ORGANIZATION ( #186, #78 ) ;
#119 = COORDINATED_UNIVERSAL_TIME_OFFSET ( 1, 0, .AHEAD. ) ;
#120 = CC_DESIGN_SECURITY_CLASSIFICATION ( #45, ( #1 ) ) ;
#121 = ORIENTED_EDGE ( 'NONE', *, *, #145, .T. ) ;
#122 = ORIENTED_EDGE ( 'NONE', *, *, #170, .F. ) ;
#123 = UNCERTAINTY_MEASURE_WITH_UNIT (LENGTH_MEASURE( 1.000000000000000082E-05 ), #67, 'distance_accuracy_value', 'NONE');
#124 = CIRCLE ( 'NONE', #196, 6.000000000000000000 ) ;
#125 = DIRECTION ( 'NONE',  ( 5.135813185032635656E-31, 1.000000000000000000, 1.445602896647341135E-16 ) ) ;
#126 = CARTESIAN_POINT ( 'NONE',  ( 2.506883601289369370E-13, -8.792964017877994997E-15, 71.79999999999998295 ) ) ;
#127 = ADVANCED_FACE ( 'NONE', ( #113, #5 ), #59, .T. ) ;
#128 = DIRECTION ( 'NONE',  ( -3.491481338843133355E-15, 1.224646799147353207E-16, -1.000000000000000000 ) ) ;
#129 = DIRECTION ( 'NONE',  ( 0.0000000000000000000, 1.000000000000000000, 0.0000000000000000000 ) ) ;
#130 = FACE_OUTER_BOUND ( 'NONE', #171, .T. ) ;
#131 = CONICAL_SURFACE ( 'NONE', #183, 4.800000000000000711, 0.7853981633974453924 ) ;
#132 = CC_DESIGN_APPROVAL ( #26, ( #1 ) ) ;
#133 = ADVANCED_FACE ( 'NONE', ( #161 ), #35, .T. ) ;
#134 = APPROVAL_DATE_TIME ( #203, #191 ) ;
#135 = PERSON_AND_ORGANIZATION ( #186, #78 ) ;
#136 = CIRCLE ( 'NONE', #47, 5.999999999999992006 ) ;
#137 = PERSON_AND_ORGANIZATION ( #186, #78 ) ;
#138 = AXIS2_PLACEMENT_3D ( 'NONE', #69, #172, #51 ) ;
#139 =( GEOMETRIC_REPRESENTATION_CONTEXT ( 3 ) GLOBAL_UNCERTAINTY_ASSIGNED_CONTEXT ( ( #123 ) ) GLOBAL_UNIT_ASSIGNED_CONTEXT ( ( #67, #149, #15 ) ) REPRESENTATION_CONTEXT ( 'NONE', 'WORKASPACE' ) );
#140 = ORIENTED_EDGE ( 'NONE', *, *, #62, .F. ) ;
#141 = DIRECTION ( 'NONE',  ( 4.275831445896958607E-31, 1.000000000000000000, 1.224646799147353207E-16 ) ) ;
#142 = VERTEX_POINT ( 'NONE', #79 ) ;
#143 = VERTEX_POINT ( 'NONE', #85 ) ;
#144 = APPLICATION_CONTEXT ( 'configuration controlled 3d designs of mechanical parts and assemblies' ) ;
#145 = EDGE_CURVE ( 'NONE', #97, #97, #136, .T. ) ;
#146 = DIRECTION ( 'NONE',  ( 5.135813185032635656E-31, 1.000000000000000000, 1.445602896647341135E-16 ) ) ;
#147 = CARTESIAN_POINT ( 'NONE',  ( -2.565498867538174901E-31, 8.998558695971144279E-33, -7.347880794884117764E-17 ) ) ;
#148 = CC_DESIGN_PERSON_AND_ORGANIZATION_ASSIGNMENT ( #135, #116, ( #1 ) ) ;
#149 =( NAMED_UNIT ( * ) PLANE_ANGLE_UNIT ( ) SI_UNIT ( $, .RADIAN. ) );
#150 = PERSON_AND_ORGANIZATION ( #186, #78 ) ;
#151 = PERSON_AND_ORGANIZATION ( #186, #78 ) ;
#152 = DATE_AND_TIME ( #165, #95 ) ;
#153 = ORIENTED_EDGE ( 'NONE', *, *, #145, .F. ) ;
#154 = ADVANCED_BREP_SHAPE_REPRESENTATION ( '49023', ( #166, #101, #168 ), #139 ) ;
#155 = ORIENTED_EDGE ( 'NONE', *, *, #170, .T. ) ;
#156 = PRODUCT_DEFINITION ( 'UNKNOWN', '', #1, #34 ) ;
#157 = LOCAL_TIME ( 15, 55, 43.00000000000000000, #86 ) ;
#158 = DIRECTION ( 'NONE',  ( -3.491481338843133355E-15, 1.224646799147353207E-16, -1.000000000000000000 ) ) ;
#159 = CARTESIAN_POINT ( 'NONE',  ( 2.506883601289369370E-13, 5.999999999999991118, 71.79999999999998295 ) ) ;
#160 = DIRECTION ( 'NONE',  ( -3.491481338843133355E-15, 1.224646799147353207E-16, -1.000000000000000000 ) ) ;
#161 = FACE_OUTER_BOUND ( 'NONE', #108, .T. ) ;
#162 = FACE_OUTER_BOUND ( 'NONE', #185, .T. ) ;
#163 = APPROVAL_STATUS ( 'not_yet_approved' ) ;
#164 = APPROVAL_ROLE ( '' ) ;
#165 = CALENDAR_DATE ( 2021, 24, 11 ) ;
#166 = MANIFOLD_SOLID_BREP ( 'Corps-Déplacer/Copier2[1]', #65 ) ;
#167 = CALENDAR_DATE ( 2021, 24, 11 ) ;
#168 = AXIS2_PLACEMENT_3D ( 'NONE', #25, #73, #180 ) ;
#169 = EDGE_LOOP ( 'NONE', ( #122 ) ) ;
#170 = EDGE_CURVE ( 'NONE', #68, #68, #124, .T. ) ;
#171 = EDGE_LOOP ( 'NONE', ( #153 ) ) ;
#172 = DIRECTION ( 'NONE',  ( 3.491481338843133355E-15, -1.224646799147353207E-16, 1.000000000000000000 ) ) ;
#173 = LOCAL_TIME ( 15, 55, 43.00000000000000000, #61 ) ;
#174 = CARTESIAN_POINT ( 'NONE',  ( -1.282749433769087451E-31, 4.499279347985572139E-33, -3.673940397442058882E-17 ) ) ;
#175 = DIRECTION ( 'NONE',  ( -3.491481338843133355E-15, 1.224646799147353207E-16, -1.000000000000000000 ) ) ;
#176 = DIRECTION ( 'NONE',  ( 4.275831445896958607E-31, 1.000000000000000000, 1.224646799147353207E-16 ) ) ;
#177 = AXIS2_PLACEMENT_3D ( 'NONE', #198, #7, #55 ) ;
#178 = CARTESIAN_POINT ( 'NONE',  ( 0.0000000000000000000, 0.0000000000000000000, 0.0000000000000000000 ) ) ;
#179 = PERSON_AND_ORGANIZATION ( #186, #78 ) ;
#180 = DIRECTION ( 'NONE',  ( 1.000000000000000000, 0.0000000000000000000, 0.0000000000000000000 ) ) ;
#181 = CALENDAR_DATE ( 2021, 24, 11 ) ;
#182 = ADVANCED_FACE ( 'NONE', ( #111, #52 ), #131, .T. ) ;
#183 = AXIS2_PLACEMENT_3D ( 'NONE', #115, #158, #24 ) ;
#184 = APPROVAL_PERSON_ORGANIZATION ( #151, #91, #201 ) ;
#185 = EDGE_LOOP ( 'NONE', ( #155 ) ) ;
#186 = PERSON ( 'UNSPECIFIED', 'UNSPECIFIED', 'UNSPECIFIED', ('UNSPECIFIED'), ('UNSPECIFIED'), ('UNSPECIFIED') ) ;
#187 = CC_DESIGN_PERSON_AND_ORGANIZATION_ASSIGNMENT ( #118, #40, ( #1 ) ) ;
#188 = ORIENTED_EDGE ( 'NONE', *, *, #64, .T. ) ;
#189 = AXIS2_PLACEMENT_3D ( 'NONE', #39, #70, #48 ) ;
#190 = CARTESIAN_POINT ( 'NONE',  ( 1.885399922975282546E-14, 4.499279347985565708E-32, 5.399999999999972822 ) ) ;
#191 = APPROVAL ( #163, 'UNSPECIFIED' ) ;
#192 = DIRECTION ( 'NONE',  ( -3.491481338843133355E-15, 1.224646799147353207E-16, -1.000000000000000000 ) ) ;
#193 = CARTESIAN_POINT ( 'NONE',  ( 2.548781377355487223E-13, 3.599423478388445669E-32, 73.00000000000000000 ) ) ;
#194 = ADVANCED_FACE ( 'NONE', ( #81 ), #98, .T. ) ;
#195 = PLANE ( 'NONE',  #13 ) ;
#196 = AXIS2_PLACEMENT_3D ( 'NONE', #126, #175, #129 ) ;
#197 = APPROVAL_PERSON_ORGANIZATION ( #56, #191, #27 ) ;
#198 = CARTESIAN_POINT ( 'NONE',  ( 1.885399922975282546E-14, 4.499279347985565708E-32, 5.399999999999972822 ) ) ;
#199 = APPLICATION_PROTOCOL_DEFINITION ( 'international standard', 'config_control_design', 1994, #92 ) ;
#200 = PERSON_AND_ORGANIZATION ( #186, #78 ) ;
#201 = APPROVAL_ROLE ( '' ) ;
#202 = DATE_TIME_ROLE ( 'classification_date' ) ;
#203 = DATE_AND_TIME ( #105, #107 ) ;
ENDSEC;
END-ISO-10303-21;
