ISO-10303-21;
HEADER;
FILE_DESCRIPTION (( 'STEP AP203' ),
    '1' );
FILE_NAME ('49022.step',
    '2021-11-24T14:55:42',
    ( '' ),
    ( '' ),
    'SwSTEP 2.0',
    'SolidWorks 2019',
    '' );
FILE_SCHEMA (( 'CONFIG_CONTROL_DESIGN' ));
ENDSEC;

DATA;
#1 = CARTESIAN_POINT ( 'NONE',  ( 2.513866563967056016E-13, 3.999999999999992450, 72.00000000000000000 ) ) ;
#2 =( GEOMETRIC_REPRESENTATION_CONTEXT ( 3 ) GLOBAL_UNCERTAINTY_ASSIGNED_CONTEXT ( ( #37 ) ) GLOBAL_UNIT_ASSIGNED_CONTEXT ( ( #163, #96, #94 ) ) REPRESENTATION_CONTEXT ( 'NONE', 'WORKASPACE' ) );
#3 = FACE_OUTER_BOUND ( 'NONE', #181, .T. ) ;
#4 = VERTEX_POINT ( 'NONE', #1 ) ;
#5 = FACE_OUTER_BOUND ( 'NONE', #156, .T. ) ;
#6 = DIRECTION ( 'NONE',  ( -3.491481338843133355E-15, 1.224646799147353207E-16, -1.000000000000000000 ) ) ;
#7 = CALENDAR_DATE ( 2021, 24, 11 ) ;
#8 = PERSON_AND_ORGANIZATION ( #136, #23 ) ;
#9 = ADVANCED_FACE ( 'NONE', ( #34 ), #147, .F. ) ;
#10 = ORIENTED_EDGE ( 'NONE', *, *, #59, .T. ) ;
#11 = ORIENTED_EDGE ( 'NONE', *, *, #92, .F. ) ;
#12 = APPROVAL_PERSON_ORGANIZATION ( #81, #69, #82 ) ;
#13 = ADVANCED_FACE ( 'NONE', ( #5 ), #46, .F. ) ;
#14 = DIRECTION ( 'NONE',  ( -3.491481338843133355E-15, 1.224646799147353207E-16, -1.000000000000000000 ) ) ;
#15 = PERSON_AND_ORGANIZATION_ROLE ( 'creator' ) ;
#16 = DIRECTION ( 'NONE',  ( 4.275831445896958607E-31, 1.000000000000000000, 1.224646799147353207E-16 ) ) ;
#17 = DIRECTION ( 'NONE',  ( -3.491481338843133355E-15, 1.224646799147353207E-16, -1.000000000000000000 ) ) ;
#18 = CARTESIAN_POINT ( 'NONE',  ( 2.513866563967056016E-13, -8.817456953860941711E-15, 72.00000000000000000 ) ) ;
#19 = DIRECTION ( 'NONE',  ( 1.000000000000000000, 0.0000000000000000000, 0.0000000000000000000 ) ) ;
#20 = PERSON_AND_ORGANIZATION_ROLE ( 'design_owner' ) ;
#21 = VERTEX_POINT ( 'NONE', #38 ) ;
#22 = CONICAL_SURFACE ( 'NONE', #137, 0.5000000000000000000, 0.7853981633974503884 ) ;
#23 = ORGANIZATION ( 'UNSPECIFIED', 'UNSPECIFIED', '' ) ;
#24 = APPROVAL_DATE_TIME ( #101, #114 ) ;
#25 = PERSON_AND_ORGANIZATION_ROLE ( 'creator' ) ;
#26 = CIRCLE ( 'NONE', #118, 5.000000000000000888 ) ;
#27 = ORIENTED_EDGE ( 'NONE', *, *, #84, .F. ) ;
#28 = APPROVAL_STATUS ( 'not_yet_approved' ) ;
#29 = ORIENTED_EDGE ( 'NONE', *, *, #92, .T. ) ;
#30 = EDGE_LOOP ( 'NONE', ( #184 ) ) ;
#31 = LOCAL_TIME ( 15, 55, 42.00000000000000000, #194 ) ;
#32 = FACE_BOUND ( 'NONE', #90, .T. ) ;
#33 = CALENDAR_DATE ( 2021, 24, 11 ) ;
#34 = FACE_OUTER_BOUND ( 'NONE', #89, .T. ) ;
#35 = DIRECTION ( 'NONE',  ( -4.275831445896958607E-31, -1.000000000000000000, -1.224646799147353207E-16 ) ) ;
#36 = FACE_OUTER_BOUND ( 'NONE', #155, .T. ) ;
#37 = UNCERTAINTY_MEASURE_WITH_UNIT (LENGTH_MEASURE( 1.000000000000000082E-05 ), #163, 'distance_accuracy_value', 'NONE');
#38 = CARTESIAN_POINT ( 'NONE',  ( 4.276423536147513034E-47, 0.5000000000000000000, 0.0000000000000000000 ) ) ;
#39 = DIRECTION ( 'NONE',  ( -4.275831445896959482E-31, -1.000000000000000000, -1.224646799147353207E-16 ) ) ;
#40 = PRODUCT_DEFINITION ( 'UNKNOWN', '', #64, #125 ) ;
#41 = LOCAL_TIME ( 15, 55, 42.00000000000000000, #122 ) ;
#42 = DATE_AND_TIME ( #7, #41 ) ;
#43 = SECURITY_CLASSIFICATION_LEVEL ( 'unclassified' ) ;
#44 = CC_DESIGN_DATE_AND_TIME_ASSIGNMENT ( #42, #103, ( #40 ) ) ;
#45 = EDGE_LOOP ( 'NONE', ( #199 ) ) ;
#46 = PLANE ( 'NONE',  #195 ) ;
#47 = APPROVAL_PERSON_ORGANIZATION ( #135, #54, #192 ) ;
#48 = DIRECTION ( 'NONE',  ( -3.491481338843133355E-15, 1.224646799147353207E-16, -1.000000000000000000 ) ) ;
#49 = PRODUCT_RELATED_PRODUCT_CATEGORY ( 'detail', '', ( #131 ) ) ;
#50 = CARTESIAN_POINT ( 'NONE',  ( 2.513866563967056016E-13, 2.999519565323702626E-32, 72.00000000000000000 ) ) ;
#51 = APPLICATION_PROTOCOL_DEFINITION ( 'international standard', 'config_control_design', 1994, #201 ) ;
#52 = DIRECTION ( 'NONE',  ( 0.0000000000000000000, 0.0000000000000000000, 1.000000000000000000 ) ) ;
#53 = APPROVAL_STATUS ( 'not_yet_approved' ) ;
#54 = APPROVAL ( #28, 'UNSPECIFIED' ) ;
#55 = PERSON_AND_ORGANIZATION_ROLE ( 'design_supplier' ) ;
#56 = PERSON_AND_ORGANIZATION_ROLE ( 'classification_officer' ) ;
#57 = AXIS2_PLACEMENT_3D ( 'NONE', #160, #14, #77 ) ;
#58 = AXIS2_PLACEMENT_3D ( 'NONE', #177, #78, #35 ) ;
#59 = EDGE_CURVE ( 'NONE', #146, #146, #26, .T. ) ;
#60 = CALENDAR_DATE ( 2021, 24, 11 ) ;
#61 = ORIENTED_EDGE ( 'NONE', *, *, #111, .T. ) ;
#62 = ORIENTED_EDGE ( 'NONE', *, *, #111, .F. ) ;
#63 = CIRCLE ( 'NONE', #140, 4.999999999999992895 ) ;
#64 = PRODUCT_DEFINITION_FORMATION_WITH_SPECIFIED_SOURCE ( 'ANY', '', #131, .NOT_KNOWN. ) ;
#65 = DIRECTION ( 'NONE',  ( -3.491481338843133355E-15, 1.224646799147353207E-16, -1.000000000000000000 ) ) ;
#66 = MANIFOLD_SOLID_BREP ( 'Corps-Déplacer/Copier2[2]', #126 ) ;
#67 = CARTESIAN_POINT ( 'NONE',  ( 2.478951750578624808E-13, 4.999999999999992006, 71.00000000000001421 ) ) ;
#68 = EDGE_LOOP ( 'NONE', ( #27 ) ) ;
#69 = APPROVAL ( #53, 'UNSPECIFIED' ) ;
#70 = CLOSED_SHELL ( 'NONE', ( #13, #91, #100, #9 ) ) ;
#71 = DATE_AND_TIME ( #33, #138 ) ;
#72 = CARTESIAN_POINT ( 'NONE',  ( 0.0000000000000000000, 0.0000000000000000000, 0.0000000000000000000 ) ) ;
#73 = APPROVAL_DATE_TIME ( #193, #54 ) ;
#74 = APPROVAL_ROLE ( '' ) ;
#75 = FACE_OUTER_BOUND ( 'NONE', #45, .T. ) ;
#76 = LOCAL_TIME ( 15, 55, 42.00000000000000000, #86 ) ;
#77 = DIRECTION ( 'NONE',  ( 0.0000000000000000000, 1.000000000000000000, 0.0000000000000000000 ) ) ;
#78 = DIRECTION ( 'NONE',  ( 3.491481338843133355E-15, -1.224646799147353207E-16, 1.000000000000000000 ) ) ;
#79 = CARTESIAN_POINT ( 'NONE',  ( 2.478951750578624808E-13, -8.694992273946208141E-15, 71.00000000000001421 ) ) ;
#80 = CIRCLE ( 'NONE', #57, 4.000000000000000888 ) ;
#81 = PERSON_AND_ORGANIZATION ( #136, #23 ) ;
#82 = APPROVAL_ROLE ( '' ) ;
#83 = CARTESIAN_POINT ( 'NONE',  ( 1.571166602479401175E-14, -5.510910596163058987E-16, 4.499999999999975131 ) ) ;
#84 = EDGE_CURVE ( 'NONE', #167, #167, #63, .T. ) ;
#85 = CALENDAR_DATE ( 2021, 24, 11 ) ;
#86 = COORDINATED_UNIVERSAL_TIME_OFFSET ( 1, 0, .AHEAD. ) ;
#87 = DATE_TIME_ROLE ( 'classification_date' ) ;
#88 = ORIENTED_EDGE ( 'NONE', *, *, #59, .F. ) ;
#89 = EDGE_LOOP ( 'NONE', ( #62 ) ) ;
#90 = EDGE_LOOP ( 'NONE', ( #61 ) ) ;
#91 = ADVANCED_FACE ( 'NONE', ( #162, #36 ), #164, .T. ) ;
#92 = EDGE_CURVE ( 'NONE', #21, #21, #120, .T. ) ;
#93 = DIRECTION ( 'NONE',  ( -3.491481338843133355E-15, 1.224646799147353207E-16, -1.000000000000000000 ) ) ;
#94 =( NAMED_UNIT ( * ) SI_UNIT ( $, .STERADIAN. ) SOLID_ANGLE_UNIT ( ) );
#95 = PRODUCT_DEFINITION_SHAPE ( 'NONE', 'NONE',  #40 ) ;
#96 =( NAMED_UNIT ( * ) PLANE_ANGLE_UNIT ( ) SI_UNIT ( $, .RADIAN. ) );
#97 = DIRECTION ( 'NONE',  ( -3.491481338843133355E-15, 1.224646799147353207E-16, -1.000000000000000000 ) ) ;
#98 = PLANE ( 'NONE',  #58 ) ;
#99 = AXIS2_PLACEMENT_3D ( 'NONE', #176, #17, #143 ) ;
#100 = ADVANCED_FACE ( 'NONE', ( #108, #32 ), #185, .T. ) ;
#101 = DATE_AND_TIME ( #112, #196 ) ;
#102 = CC_DESIGN_PERSON_AND_ORGANIZATION_ASSIGNMENT ( #161, #15, ( #40 ) ) ;
#103 = DATE_TIME_ROLE ( 'creation_date' ) ;
#104 = AXIS2_PLACEMENT_3D ( 'NONE', #72, #129, #105 ) ;
#105 = DIRECTION ( 'NONE',  ( 4.275831445896959482E-31, 1.000000000000000000, 1.224646799147353207E-16 ) ) ;
#106 = AXIS2_PLACEMENT_3D ( 'NONE', #170, #48, #171 ) ;
#107 = AXIS2_PLACEMENT_3D ( 'NONE', #165, #52, #19 ) ;
#108 = FACE_OUTER_BOUND ( 'NONE', #139, .T. ) ;
#109 = APPROVAL_DATE_TIME ( #71, #69 ) ;
#110 = CARTESIAN_POINT ( 'NONE',  ( 1.571166602479401490E-14, -7.806255641895602343E-16, 4.499999999999976019 ) ) ;
#111 = EDGE_CURVE ( 'NONE', #4, #4, #80, .T. ) ;
#112 = CALENDAR_DATE ( 2021, 24, 11 ) ;
#113 = PERSON_AND_ORGANIZATION ( #136, #23 ) ;
#114 = APPROVAL ( #180, 'UNSPECIFIED' ) ;
#115 = SHAPE_DEFINITION_REPRESENTATION ( #95, #198 ) ;
#116 = PERSON_AND_ORGANIZATION ( #136, #23 ) ;
#117 = ORIENTED_EDGE ( 'NONE', *, *, #157, .T. ) ;
#118 = AXIS2_PLACEMENT_3D ( 'NONE', #79, #124, #186 ) ;
#119 = DIRECTION ( 'NONE',  ( -4.275831445896958607E-31, -1.000000000000000000, -1.224646799147353207E-16 ) ) ;
#120 = CIRCLE ( 'NONE', #106, 0.5000000000000000000 ) ;
#121 = APPROVAL_PERSON_ORGANIZATION ( #113, #114, #74 ) ;
#122 = COORDINATED_UNIVERSAL_TIME_OFFSET ( 1, 0, .AHEAD. ) ;
#123 = CARTESIAN_POINT ( 'NONE',  ( 1.571166602479401490E-14, 4.999999999999992006, 4.499999999999976019 ) ) ;
#124 = DIRECTION ( 'NONE',  ( -3.491481338843133355E-15, 1.224646799147353207E-16, -1.000000000000000000 ) ) ;
#125 = DESIGN_CONTEXT ( 'detailed design', #201, 'design' ) ;
#126 = CLOSED_SHELL ( 'NONE', ( #141, #150, #175 ) ) ;
#127 = CIRCLE ( 'NONE', #99, 4.999999999999992895 ) ;
#128 = DIRECTION ( 'NONE',  ( 3.491481338843133355E-15, -1.224646799147353207E-16, 1.000000000000000000 ) ) ;
#129 = DIRECTION ( 'NONE',  ( -3.491481338843133355E-15, 1.224646799147353207E-16, -1.000000000000000000 ) ) ;
#130 = CARTESIAN_POINT ( 'NONE',  ( 1.571166602479401490E-14, 4.999999999999992006, 4.499999999999976019 ) ) ;
#131 = PRODUCT ( '49022', '49022', '', ( #166 ) ) ;
#132 = MANIFOLD_SOLID_BREP ( 'Corps-Déplacer/Copier2[1]', #70 ) ;
#133 = COORDINATED_UNIVERSAL_TIME_OFFSET ( 1, 0, .AHEAD. ) ;
#134 = CC_DESIGN_PERSON_AND_ORGANIZATION_ASSIGNMENT ( #191, #20, ( #131 ) ) ;
#135 = PERSON_AND_ORGANIZATION ( #136, #23 ) ;
#136 = PERSON ( 'UNSPECIFIED', 'UNSPECIFIED', 'UNSPECIFIED', ('UNSPECIFIED'), ('UNSPECIFIED'), ('UNSPECIFIED') ) ;
#137 = AXIS2_PLACEMENT_3D ( 'NONE', #172, #128, #39 ) ;
#138 = LOCAL_TIME ( 15, 55, 42.00000000000000000, #148 ) ;
#139 = EDGE_LOOP ( 'NONE', ( #88 ) ) ;
#140 = AXIS2_PLACEMENT_3D ( 'NONE', #83, #6, #149 ) ;
#141 = ADVANCED_FACE ( 'NONE', ( #3 ), #142, .T. ) ;
#142 = PLANE ( 'NONE',  #189 ) ;
#143 = DIRECTION ( 'NONE',  ( 6.162975822039163488E-31, 1.000000000000000000, 1.734723475976809560E-16 ) ) ;
#144 = DIRECTION ( 'NONE',  ( 0.0000000000000000000, 1.000000000000000000, 0.0000000000000000000 ) ) ;
#145 = APPLICATION_CONTEXT ( 'configuration controlled 3d designs of mechanical parts and assemblies' ) ;
#146 = VERTEX_POINT ( 'NONE', #67 ) ;
#147 = PLANE ( 'NONE',  #183 ) ;
#148 = COORDINATED_UNIVERSAL_TIME_OFFSET ( 1, 0, .AHEAD. ) ;
#149 = DIRECTION ( 'NONE',  ( 6.162975822039163488E-31, 1.000000000000000000, 1.734723475976809560E-16 ) ) ;
#150 = ADVANCED_FACE ( 'NONE', ( #75, #178 ), #22, .T. ) ;
#151 = AXIS2_PLACEMENT_3D ( 'NONE', #18, #93, #144 ) ;
#152 = CC_DESIGN_SECURITY_CLASSIFICATION ( #169, ( #64 ) ) ;
#153 = DATE_AND_TIME ( #85, #76 ) ;
#154 = PERSON_AND_ORGANIZATION ( #136, #23 ) ;
#155 = EDGE_LOOP ( 'NONE', ( #10 ) ) ;
#156 = EDGE_LOOP ( 'NONE', ( #117 ) ) ;
#157 = EDGE_CURVE ( 'NONE', #187, #187, #127, .T. ) ;
#158 = CC_DESIGN_APPROVAL ( #69, ( #40 ) ) ;
#159 = CC_DESIGN_PERSON_AND_ORGANIZATION_ASSIGNMENT ( #154, #25, ( #64 ) ) ;
#160 = CARTESIAN_POINT ( 'NONE',  ( 2.513866563967056016E-13, -8.817456953860941711E-15, 72.00000000000000000 ) ) ;
#161 = PERSON_AND_ORGANIZATION ( #136, #23 ) ;
#162 = FACE_OUTER_BOUND ( 'NONE', #30, .T. ) ;
#163 =( LENGTH_UNIT ( ) NAMED_UNIT ( * ) SI_UNIT ( .MILLI., .METRE. ) );
#164 = CYLINDRICAL_SURFACE ( 'NONE', #104, 4.999999999999997335 ) ;
#165 = CARTESIAN_POINT ( 'NONE',  ( 0.0000000000000000000, 0.0000000000000000000, 0.0000000000000000000 ) ) ;
#166 = MECHANICAL_CONTEXT ( 'NONE', #145, 'mechanical' ) ;
#167 = VERTEX_POINT ( 'NONE', #130 ) ;
#168 = CC_DESIGN_APPROVAL ( #54, ( #64 ) ) ;
#169 = SECURITY_CLASSIFICATION ( '', '', #43 ) ;
#170 = CARTESIAN_POINT ( 'NONE',  ( -2.137915722948478865E-31, 7.498798913309288039E-33, -6.123233995736766036E-17 ) ) ;
#171 = DIRECTION ( 'NONE',  ( 4.275831445896958607E-31, 1.000000000000000000, 1.224646799147353207E-16 ) ) ;
#172 = CARTESIAN_POINT ( 'NONE',  ( -2.137915722948478865E-31, 7.498798913309288039E-33, -6.123233995736766036E-17 ) ) ;
#173 = DIRECTION ( 'NONE',  ( 3.491481338843133355E-15, -1.224646799147353207E-16, 1.000000000000000000 ) ) ;
#174 = APPLICATION_PROTOCOL_DEFINITION ( 'international standard', 'config_control_design', 1994, #145 ) ;
#175 = ADVANCED_FACE ( 'NONE', ( #190 ), #98, .T. ) ;
#176 = CARTESIAN_POINT ( 'NONE',  ( 1.571166602479401175E-14, -5.510910596163058987E-16, 4.499999999999975131 ) ) ;
#177 = CARTESIAN_POINT ( 'NONE',  ( 1.571166602479401490E-14, -7.806255641895602343E-16, 4.499999999999976019 ) ) ;
#178 = FACE_BOUND ( 'NONE', #197, .T. ) ;
#179 = CC_DESIGN_APPROVAL ( #114, ( #169 ) ) ;
#180 = APPROVAL_STATUS ( 'not_yet_approved' ) ;
#181 = EDGE_LOOP ( 'NONE', ( #29 ) ) ;
#182 = DIRECTION ( 'NONE',  ( 4.275831445896958607E-31, 1.000000000000000000, 1.224646799147353207E-16 ) ) ;
#183 = AXIS2_PLACEMENT_3D ( 'NONE', #50, #97, #16 ) ;
#184 = ORIENTED_EDGE ( 'NONE', *, *, #157, .F. ) ;
#185 = CONICAL_SURFACE ( 'NONE', #151, 4.000000000000000888, 0.7853981633974548293 ) ;
#186 = DIRECTION ( 'NONE',  ( 0.0000000000000000000, 1.000000000000000000, 0.0000000000000000000 ) ) ;
#187 = VERTEX_POINT ( 'NONE', #123 ) ;
#188 = CC_DESIGN_PERSON_AND_ORGANIZATION_ASSIGNMENT ( #116, #56, ( #169 ) ) ;
#189 = AXIS2_PLACEMENT_3D ( 'NONE', #203, #65, #182 ) ;
#190 = FACE_OUTER_BOUND ( 'NONE', #68, .T. ) ;
#191 = PERSON_AND_ORGANIZATION ( #136, #23 ) ;
#192 = APPROVAL_ROLE ( '' ) ;
#193 = DATE_AND_TIME ( #60, #31 ) ;
#194 = COORDINATED_UNIVERSAL_TIME_OFFSET ( 1, 0, .AHEAD. ) ;
#195 = AXIS2_PLACEMENT_3D ( 'NONE', #110, #173, #119 ) ;
#196 = LOCAL_TIME ( 15, 55, 42.00000000000000000, #133 ) ;
#197 = EDGE_LOOP ( 'NONE', ( #11 ) ) ;
#198 = ADVANCED_BREP_SHAPE_REPRESENTATION ( '49022', ( #132, #66, #107 ), #2 ) ;
#199 = ORIENTED_EDGE ( 'NONE', *, *, #84, .T. ) ;
#200 = CC_DESIGN_PERSON_AND_ORGANIZATION_ASSIGNMENT ( #8, #55, ( #64 ) ) ;
#201 = APPLICATION_CONTEXT ( 'configuration controlled 3d designs of mechanical parts and assemblies' ) ;
#202 = CC_DESIGN_DATE_AND_TIME_ASSIGNMENT ( #153, #87, ( #169 ) ) ;
#203 = CARTESIAN_POINT ( 'NONE',  ( -1.068957861474239433E-31, 3.749399456654644020E-33, -3.061616997868383018E-17 ) ) ;
ENDSEC;
END-ISO-10303-21;
