ISO-10303-21;
HEADER;
FILE_DESCRIPTION (( 'STEP AP203' ),
    '1' );
FILE_NAME ('49021.step',
    '2021-11-24T14:55:42',
    ( '' ),
    ( '' ),
    'SwSTEP 2.0',
    'SolidWorks 2019',
    '' );
FILE_SCHEMA (( 'CONFIG_CONTROL_DESIGN' ));
ENDSEC;

DATA;
#1 = ORIENTED_EDGE ( 'NONE', *, *, #121, .T. ) ;
#2 = CC_DESIGN_APPROVAL ( #4, ( #124 ) ) ;
#3 = CARTESIAN_POINT ( 'NONE',  ( -1.710332578358783486E-31, 5.999039130647431116E-33, -4.898587196589413075E-17 ) ) ;
#4 = APPROVAL ( #168, 'UNSPECIFIED' ) ;
#5 = DIRECTION ( 'NONE',  ( -4.275831445896958607E-31, -1.000000000000000000, -1.224646799147353207E-16 ) ) ;
#6 = EDGE_LOOP ( 'NONE', ( #18 ) ) ;
#7 = DIRECTION ( 'NONE',  ( -4.275831445896958607E-31, -1.000000000000000000, -1.224646799147353207E-16 ) ) ;
#8 = PLANE ( 'NONE',  #112 ) ;
#9 = APPROVAL_DATE_TIME ( #97, #14 ) ;
#10 =( LENGTH_UNIT ( ) NAMED_UNIT ( * ) SI_UNIT ( .MILLI., .METRE. ) );
#11 = AXIS2_PLACEMENT_3D ( 'NONE', #22, #45, #5 ) ;
#12 = DATE_TIME_ROLE ( 'creation_date' ) ;
#13 = VERTEX_POINT ( 'NONE', #200 ) ;
#14 = APPROVAL ( #136, 'UNSPECIFIED' ) ;
#15 = ADVANCED_BREP_SHAPE_REPRESENTATION ( '49021', ( #59, #128, #189 ), #193 ) ;
#16 = EDGE_LOOP ( 'NONE', ( #164 ) ) ;
#17 = ORIENTED_EDGE ( 'NONE', *, *, #153, .F. ) ;
#18 = ORIENTED_EDGE ( 'NONE', *, *, #159, .T. ) ;
#19 = ADVANCED_FACE ( 'NONE', ( #126 ), #129, .F. ) ;
#20 = CARTESIAN_POINT ( 'NONE',  ( -1.710332578358783486E-31, 5.999039130647431116E-33, -4.898587196589413075E-17 ) ) ;
#21 = CARTESIAN_POINT ( 'NONE',  ( 2.199633243471174140E-13, 2.399615652258960951E-32, 63.00000000000000000 ) ) ;
#22 = CARTESIAN_POINT ( 'NONE',  ( 1.256933281983520750E-14, -3.903127820947800185E-16, 3.599999999999979661 ) ) ;
#23 = CARTESIAN_POINT ( 'NONE',  ( 1.256933281983520750E-14, -3.903127820947800185E-16, 3.599999999999979661 ) ) ;
#24 = COORDINATED_UNIVERSAL_TIME_OFFSET ( 1, 0, .AHEAD. ) ;
#25 = APPROVAL_ROLE ( '' ) ;
#26 = CARTESIAN_POINT ( 'NONE',  ( 2.171701392760428568E-13, 3.999999999999993339, 62.19999999999998863 ) ) ;
#27 = APPROVAL_STATUS ( 'not_yet_approved' ) ;
#28 = CARTESIAN_POINT ( 'NONE',  ( 0.0000000000000000000, 0.0000000000000000000, 0.0000000000000000000 ) ) ;
#29 = ADVANCED_FACE ( 'NONE', ( #106, #109 ), #173, .T. ) ;
#30 = CC_DESIGN_SECURITY_CLASSIFICATION ( #65, ( #124 ) ) ;
#31 = AXIS2_PLACEMENT_3D ( 'NONE', #96, #35, #68 ) ;
#32 = EDGE_CURVE ( 'NONE', #190, #190, #55, .T. ) ;
#33 = EDGE_LOOP ( 'NONE', ( #1 ) ) ;
#34 = EDGE_LOOP ( 'NONE', ( #137 ) ) ;
#35 = DIRECTION ( 'NONE',  ( -3.491481338843133355E-15, 1.224646799147353207E-16, -1.000000000000000000 ) ) ;
#36 = CARTESIAN_POINT ( 'NONE',  ( 0.0000000000000000000, 0.0000000000000000000, 0.0000000000000000000 ) ) ;
#37 = CALENDAR_DATE ( 2021, 24, 11 ) ;
#38 = FACE_OUTER_BOUND ( 'NONE', #6, .T. ) ;
#39 = DIRECTION ( 'NONE',  ( 1.000000000000000000, 0.0000000000000000000, 0.0000000000000000000 ) ) ;
#40 = COORDINATED_UNIVERSAL_TIME_OFFSET ( 1, 0, .AHEAD. ) ;
#41 = CALENDAR_DATE ( 2021, 24, 11 ) ;
#42 = DATE_AND_TIME ( #185, #113 ) ;
#43 = APPROVAL_PERSON_ORGANIZATION ( #166, #4, #25 ) ;
#44 = AXIS2_PLACEMENT_3D ( 'NONE', #163, #83, #144 ) ;
#45 = DIRECTION ( 'NONE',  ( 3.491481338843133355E-15, -1.224646799147353207E-16, 1.000000000000000000 ) ) ;
#46 = PLANE ( 'NONE',  #31 ) ;
#47 = DIRECTION ( 'NONE',  ( -3.491481338843133355E-15, 1.224646799147353207E-16, -1.000000000000000000 ) ) ;
#48 = ADVANCED_FACE ( 'NONE', ( #38 ), #8, .F. ) ;
#49 = DIRECTION ( 'NONE',  ( 0.0000000000000000000, 1.000000000000000000, 0.0000000000000000000 ) ) ;
#50 = CONICAL_SURFACE ( 'NONE', #69, 0.4000000000000000222, 0.7853981633974502774 ) ;
#51 = PERSON_AND_ORGANIZATION_ROLE ( 'creator' ) ;
#52 = SHAPE_DEFINITION_REPRESENTATION ( #70, #15 ) ;
#53 = PERSON_AND_ORGANIZATION ( #151, #74 ) ;
#54 = CC_DESIGN_PERSON_AND_ORGANIZATION_ASSIGNMENT ( #131, #51, ( #124 ) ) ;
#55 = CIRCLE ( 'NONE', #62, 0.4000000000000000222 ) ;
#56 = PERSON_AND_ORGANIZATION_ROLE ( 'creator' ) ;
#57 = DATE_AND_TIME ( #203, #120 ) ;
#58 = PRODUCT_RELATED_PRODUCT_CATEGORY ( 'detail', '', ( #134 ) ) ;
#59 = MANIFOLD_SOLID_BREP ( 'Corps-Déplacer/Copier2[1]', #123 ) ;
#60 = EDGE_LOOP ( 'NONE', ( #104 ) ) ;
#61 = ADVANCED_FACE ( 'NONE', ( #162, #192 ), #50, .T. ) ;
#62 = AXIS2_PLACEMENT_3D ( 'NONE', #3, #179, #142 ) ;
#63 = CYLINDRICAL_SURFACE ( 'NONE', #188, 3.999999999999997335 ) ;
#64 = FACE_OUTER_BOUND ( 'NONE', #156, .T. ) ;
#65 = SECURITY_CLASSIFICATION ( '', '', #181 ) ;
#66 = DIRECTION ( 'NONE',  ( 3.491481338843133355E-15, -1.224646799147353207E-16, 1.000000000000000000 ) ) ;
#67 = CARTESIAN_POINT ( 'NONE',  ( 2.171701392760428568E-13, -7.617303090696535366E-15, 62.19999999999998863 ) ) ;
#68 = DIRECTION ( 'NONE',  ( 4.275831445896958607E-31, 1.000000000000000000, 1.224646799147353207E-16 ) ) ;
#69 = AXIS2_PLACEMENT_3D ( 'NONE', #20, #79, #7 ) ;
#70 = PRODUCT_DEFINITION_SHAPE ( 'NONE', 'NONE',  #119 ) ;
#71 = COORDINATED_UNIVERSAL_TIME_OFFSET ( 1, 0, .AHEAD. ) ;
#72 = APPROVAL_ROLE ( '' ) ;
#73 = CARTESIAN_POINT ( 'NONE',  ( 1.256933281983521066E-14, 3.999999999999993339, 3.599999999999980549 ) ) ;
#74 = ORGANIZATION ( 'UNSPECIFIED', 'UNSPECIFIED', '' ) ;
#75 = PERSON_AND_ORGANIZATION ( #151, #74 ) ;
#76 = ORIENTED_EDGE ( 'NONE', *, *, #32, .F. ) ;
#77 = CIRCLE ( 'NONE', #148, 4.000000000000000888 ) ;
#78 = AXIS2_PLACEMENT_3D ( 'NONE', #110, #195, #94 ) ;
#79 = DIRECTION ( 'NONE',  ( 3.491481338843133355E-15, -1.224646799147353207E-16, 1.000000000000000000 ) ) ;
#80 = ORIENTED_EDGE ( 'NONE', *, *, #159, .F. ) ;
#81 = CC_DESIGN_PERSON_AND_ORGANIZATION_ASSIGNMENT ( #115, #150, ( #124 ) ) ;
#82 = DIRECTION ( 'NONE',  ( -3.491481338843133355E-15, 1.224646799147353207E-16, -1.000000000000000000 ) ) ;
#83 = DIRECTION ( 'NONE',  ( -3.491481338843133355E-15, 1.224646799147353207E-16, -1.000000000000000000 ) ) ;
#84 = APPROVAL_DATE_TIME ( #42, #4 ) ;
#85 = MECHANICAL_CONTEXT ( 'NONE', #103, 'mechanical' ) ;
#86 = APPLICATION_PROTOCOL_DEFINITION ( 'international standard', 'config_control_design', 1994, #108 ) ;
#87 = DATE_AND_TIME ( #135, #201 ) ;
#88 = ADVANCED_FACE ( 'NONE', ( #178, #140 ), #63, .T. ) ;
#89 = VERTEX_POINT ( 'NONE', #147 ) ;
#90 = CC_DESIGN_PERSON_AND_ORGANIZATION_ASSIGNMENT ( #202, #56, ( #119 ) ) ;
#91 = EDGE_LOOP ( 'NONE', ( #107 ) ) ;
#92 = AXIS2_PLACEMENT_3D ( 'NONE', #141, #111, #49 ) ;
#93 = DIRECTION ( 'NONE',  ( 3.851859888774477399E-31, 1.000000000000000000, 1.084202172485506036E-16 ) ) ;
#94 = DIRECTION ( 'NONE',  ( 0.0000000000000000000, 1.000000000000000000, 0.0000000000000000000 ) ) ;
#95 = DIRECTION ( 'NONE',  ( 0.0000000000000000000, 1.000000000000000000, 0.0000000000000000000 ) ) ;
#96 = CARTESIAN_POINT ( 'NONE',  ( -8.551662891793917432E-32, 2.999519565323715558E-33, -2.449293598294706538E-17 ) ) ;
#97 = DATE_AND_TIME ( #37, #155 ) ;
#98 = EDGE_CURVE ( 'NONE', #89, #89, #171, .T. ) ;
#99 = PERSON_AND_ORGANIZATION_ROLE ( 'classification_officer' ) ;
#100 = CIRCLE ( 'NONE', #44, 3.999999999999994227 ) ;
#101 = PERSON_AND_ORGANIZATION_ROLE ( 'design_owner' ) ;
#102 = CC_DESIGN_DATE_AND_TIME_ASSIGNMENT ( #117, #12, ( #119 ) ) ;
#103 = APPLICATION_CONTEXT ( 'configuration controlled 3d designs of mechanical parts and assemblies' ) ;
#104 = ORIENTED_EDGE ( 'NONE', *, *, #98, .F. ) ;
#105 = LOCAL_TIME ( 15, 55, 42.00000000000000000, #40 ) ;
#106 = FACE_OUTER_BOUND ( 'NONE', #172, .T. ) ;
#107 = ORIENTED_EDGE ( 'NONE', *, *, #98, .T. ) ;
#108 = APPLICATION_CONTEXT ( 'configuration controlled 3d designs of mechanical parts and assemblies' ) ;
#109 = FACE_BOUND ( 'NONE', #33, .T. ) ;
#110 = CARTESIAN_POINT ( 'NONE',  ( 2.199633243471174140E-13, -7.715274834628325378E-15, 63.00000000000000000 ) ) ;
#111 = DIRECTION ( 'NONE',  ( -3.491481338843133355E-15, 1.224646799147353207E-16, -1.000000000000000000 ) ) ;
#112 = AXIS2_PLACEMENT_3D ( 'NONE', #23, #66, #191 ) ;
#113 = LOCAL_TIME ( 15, 55, 42.00000000000000000, #24 ) ;
#114 = CARTESIAN_POINT ( 'NONE',  ( 0.0000000000000000000, 0.4000000000000000222, 0.0000000000000000000 ) ) ;
#115 = PERSON_AND_ORGANIZATION ( #151, #74 ) ;
#116 = DIRECTION ( 'NONE',  ( 0.0000000000000000000, 0.0000000000000000000, 1.000000000000000000 ) ) ;
#117 = DATE_AND_TIME ( #41, #105 ) ;
#118 = DATE_TIME_ROLE ( 'classification_date' ) ;
#119 = PRODUCT_DEFINITION ( 'UNKNOWN', '', #124, #158 ) ;
#120 = LOCAL_TIME ( 15, 55, 42.00000000000000000, #71 ) ;
#121 = EDGE_CURVE ( 'NONE', #13, #13, #197, .T. ) ;
#122 = UNCERTAINTY_MEASURE_WITH_UNIT (LENGTH_MEASURE( 1.000000000000000082E-05 ), #10, 'distance_accuracy_value', 'NONE');
#123 = CLOSED_SHELL ( 'NONE', ( #48, #88, #29, #19 ) ) ;
#124 = PRODUCT_DEFINITION_FORMATION_WITH_SPECIFIED_SOURCE ( 'ANY', '', #134, .NOT_KNOWN. ) ;
#125 = PLANE ( 'NONE',  #11 ) ;
#126 = FACE_OUTER_BOUND ( 'NONE', #34, .T. ) ;
#127 = DIRECTION ( 'NONE',  ( -3.491481338843133355E-15, 1.224646799147353207E-16, -1.000000000000000000 ) ) ;
#128 = MANIFOLD_SOLID_BREP ( 'Corps-Déplacer/Copier2[2]', #143 ) ;
#129 = PLANE ( 'NONE',  #154 ) ;
#130 = CC_DESIGN_APPROVAL ( #145, ( #119 ) ) ;
#131 = PERSON_AND_ORGANIZATION ( #151, #74 ) ;
#132 = CC_DESIGN_DATE_AND_TIME_ASSIGNMENT ( #57, #118, ( #65 ) ) ;
#133 = ADVANCED_FACE ( 'NONE', ( #146 ), #125, .T. ) ;
#134 = PRODUCT ( '49021', '49021', '', ( #85 ) ) ;
#135 = CALENDAR_DATE ( 2021, 24, 11 ) ;
#136 = APPROVAL_STATUS ( 'not_yet_approved' ) ;
#137 = ORIENTED_EDGE ( 'NONE', *, *, #121, .F. ) ;
#138 = APPROVAL_PERSON_ORGANIZATION ( #199, #145, #72 ) ;
#139 = CC_DESIGN_PERSON_AND_ORGANIZATION_ASSIGNMENT ( #53, #99, ( #65 ) ) ;
#140 = FACE_OUTER_BOUND ( 'NONE', #16, .T. ) ;
#141 = CARTESIAN_POINT ( 'NONE',  ( 2.199633243471174140E-13, -7.715274834628325378E-15, 63.00000000000000000 ) ) ;
#142 = DIRECTION ( 'NONE',  ( 4.275831445896958607E-31, 1.000000000000000000, 1.224646799147353207E-16 ) ) ;
#143 = CLOSED_SHELL ( 'NONE', ( #177, #61, #133 ) ) ;
#144 = DIRECTION ( 'NONE',  ( 3.851859888774477399E-31, 1.000000000000000000, 1.084202172485506036E-16 ) ) ;
#145 = APPROVAL ( #27, 'UNSPECIFIED' ) ;
#146 = FACE_OUTER_BOUND ( 'NONE', #60, .T. ) ;
#147 = CARTESIAN_POINT ( 'NONE',  ( 1.256933281983521066E-14, 3.999999999999993339, 3.599999999999980549 ) ) ;
#148 = AXIS2_PLACEMENT_3D ( 'NONE', #67, #175, #95 ) ;
#149 = APPROVAL_PERSON_ORGANIZATION ( #75, #14, #187 ) ;
#150 = PERSON_AND_ORGANIZATION_ROLE ( 'design_supplier' ) ;
#151 = PERSON ( 'UNSPECIFIED', 'UNSPECIFIED', 'UNSPECIFIED', ('UNSPECIFIED'), ('UNSPECIFIED'), ('UNSPECIFIED') ) ;
#152 = APPROVAL_DATE_TIME ( #87, #145 ) ;
#153 = EDGE_CURVE ( 'NONE', #184, #184, #77, .T. ) ;
#154 = AXIS2_PLACEMENT_3D ( 'NONE', #21, #82, #160 ) ;
#155 = LOCAL_TIME ( 15, 55, 42.00000000000000000, #182 ) ;
#156 = EDGE_LOOP ( 'NONE', ( #174 ) ) ;
#157 = EDGE_LOOP ( 'NONE', ( #80 ) ) ;
#158 = DESIGN_CONTEXT ( 'detailed design', #108, 'design' ) ;
#159 = EDGE_CURVE ( 'NONE', #169, #169, #100, .T. ) ;
#160 = DIRECTION ( 'NONE',  ( 4.275831445896958607E-31, 1.000000000000000000, 1.224646799147353207E-16 ) ) ;
#161 = EDGE_LOOP ( 'NONE', ( #76 ) ) ;
#162 = FACE_OUTER_BOUND ( 'NONE', #91, .T. ) ;
#163 = CARTESIAN_POINT ( 'NONE',  ( 1.256933281983520908E-14, -4.408728476930446993E-16, 3.599999999999980105 ) ) ;
#164 = ORIENTED_EDGE ( 'NONE', *, *, #153, .T. ) ;
#165 =( NAMED_UNIT ( * ) SI_UNIT ( $, .STERADIAN. ) SOLID_ANGLE_UNIT ( ) );
#166 = PERSON_AND_ORGANIZATION ( #151, #74 ) ;
#167 = AXIS2_PLACEMENT_3D ( 'NONE', #194, #47, #93 ) ;
#168 = APPROVAL_STATUS ( 'not_yet_approved' ) ;
#169 = VERTEX_POINT ( 'NONE', #73 ) ;
#170 = PERSON_AND_ORGANIZATION ( #151, #74 ) ;
#171 = CIRCLE ( 'NONE', #167, 3.999999999999994227 ) ;
#172 = EDGE_LOOP ( 'NONE', ( #17 ) ) ;
#173 = CONICAL_SURFACE ( 'NONE', #78, 3.200000000000000622, 0.7853981633974428389 ) ;
#174 = ORIENTED_EDGE ( 'NONE', *, *, #32, .T. ) ;
#175 = DIRECTION ( 'NONE',  ( -3.491481338843133355E-15, 1.224646799147353207E-16, -1.000000000000000000 ) ) ;
#176 = DIRECTION ( 'NONE',  ( 4.275831445896957731E-31, 1.000000000000000000, 1.224646799147353207E-16 ) ) ;
#177 = ADVANCED_FACE ( 'NONE', ( #64 ), #46, .T. ) ;
#178 = FACE_OUTER_BOUND ( 'NONE', #157, .T. ) ;
#179 = DIRECTION ( 'NONE',  ( -3.491481338843133355E-15, 1.224646799147353207E-16, -1.000000000000000000 ) ) ;
#180 = APPLICATION_PROTOCOL_DEFINITION ( 'international standard', 'config_control_design', 1994, #103 ) ;
#181 = SECURITY_CLASSIFICATION_LEVEL ( 'unclassified' ) ;
#182 = COORDINATED_UNIVERSAL_TIME_OFFSET ( 1, 0, .AHEAD. ) ;
#183 = CC_DESIGN_APPROVAL ( #14, ( #65 ) ) ;
#184 = VERTEX_POINT ( 'NONE', #26 ) ;
#185 = CALENDAR_DATE ( 2021, 24, 11 ) ;
#186 = CC_DESIGN_PERSON_AND_ORGANIZATION_ASSIGNMENT ( #170, #101, ( #134 ) ) ;
#187 = APPROVAL_ROLE ( '' ) ;
#188 = AXIS2_PLACEMENT_3D ( 'NONE', #36, #127, #176 ) ;
#189 = AXIS2_PLACEMENT_3D ( 'NONE', #28, #116, #39 ) ;
#190 = VERTEX_POINT ( 'NONE', #114 ) ;
#191 = DIRECTION ( 'NONE',  ( -4.275831445896958607E-31, -1.000000000000000000, -1.224646799147353207E-16 ) ) ;
#192 = FACE_BOUND ( 'NONE', #161, .T. ) ;
#193 =( GEOMETRIC_REPRESENTATION_CONTEXT ( 3 ) GLOBAL_UNCERTAINTY_ASSIGNED_CONTEXT ( ( #122 ) ) GLOBAL_UNIT_ASSIGNED_CONTEXT ( ( #10, #196, #165 ) ) REPRESENTATION_CONTEXT ( 'NONE', 'WORKASPACE' ) );
#194 = CARTESIAN_POINT ( 'NONE',  ( 1.256933281983520908E-14, -4.408728476930446993E-16, 3.599999999999980105 ) ) ;
#195 = DIRECTION ( 'NONE',  ( -3.491481338843133355E-15, 1.224646799147353207E-16, -1.000000000000000000 ) ) ;
#196 =( NAMED_UNIT ( * ) PLANE_ANGLE_UNIT ( ) SI_UNIT ( $, .RADIAN. ) );
#197 = CIRCLE ( 'NONE', #92, 3.200000000000000622 ) ;
#198 = COORDINATED_UNIVERSAL_TIME_OFFSET ( 1, 0, .AHEAD. ) ;
#199 = PERSON_AND_ORGANIZATION ( #151, #74 ) ;
#200 = CARTESIAN_POINT ( 'NONE',  ( 2.199633243471174140E-13, 3.199999999999992628, 63.00000000000000000 ) ) ;
#201 = LOCAL_TIME ( 15, 55, 42.00000000000000000, #198 ) ;
#202 = PERSON_AND_ORGANIZATION ( #151, #74 ) ;
#203 = CALENDAR_DATE ( 2021, 24, 11 ) ;
ENDSEC;
END-ISO-10303-21;
