ISO-10303-21;
HEADER;
FILE_DESCRIPTION (( 'STEP AP203' ),
    '1' );
FILE_NAME ('49020.step',
    '2021-11-24T14:55:41',
    ( '' ),
    ( '' ),
    'SwSTEP 2.0',
    'SolidWorks 2019',
    '' );
FILE_SCHEMA (( 'CONFIG_CONTROL_DESIGN' ));
ENDSEC;

DATA;
#1 = EDGE_LOOP ( 'NONE', ( #129 ) ) ;
#2 = SECURITY_CLASSIFICATION ( '', '', #108 ) ;
#3 = APPROVAL_PERSON_ORGANIZATION ( #165, #96, #184 ) ;
#4 = PRODUCT_RELATED_PRODUCT_CATEGORY ( 'detail', '', ( #201 ) ) ;
#5 = FACE_BOUND ( 'NONE', #1, .T. ) ;
#6 = FACE_OUTER_BOUND ( 'NONE', #95, .T. ) ;
#7 = DIRECTION ( 'NONE',  ( -3.491481338843133355E-15, 1.224646799147353207E-16, -1.000000000000000000 ) ) ;
#8 = CC_DESIGN_APPROVAL ( #106, ( #186 ) ) ;
#9 = DIRECTION ( 'NONE',  ( 0.0000000000000000000, 1.000000000000000000, 0.0000000000000000000 ) ) ;
#10 = DATE_AND_TIME ( #147, #126 ) ;
#11 = LOCAL_TIME ( 15, 55, 41.00000000000000000, #88 ) ;
#12 = PERSON_AND_ORGANIZATION_ROLE ( 'design_supplier' ) ;
#13 = APPROVAL_DATE_TIME ( #148, #106 ) ;
#14 = ORIENTED_EDGE ( 'NONE', *, *, #176, .F. ) ;
#15 = FACE_OUTER_BOUND ( 'NONE', #40, .T. ) ;
#16 = CC_DESIGN_PERSON_AND_ORGANIZATION_ASSIGNMENT ( #181, #53, ( #201 ) ) ;
#17 = ORGANIZATION ( 'UNSPECIFIED', 'UNSPECIFIED', '' ) ;
#18 = DIRECTION ( 'NONE',  ( 3.491481338843133355E-15, -1.224646799147353207E-16, 1.000000000000000000 ) ) ;
#19 = APPLICATION_CONTEXT ( 'configuration controlled 3d designs of mechanical parts and assemblies' ) ;
#20 = DIRECTION ( 'NONE',  ( 4.275831445896958607E-31, 1.000000000000000000, 1.224646799147352961E-16 ) ) ;
#21 = CARTESIAN_POINT ( 'NONE',  ( 0.0000000000000000000, 0.2999999999999999889, 0.0000000000000000000 ) ) ;
#22 = CARTESIAN_POINT ( 'NONE',  ( 9.426999614876406417E-15, 2.999999999999993783, 2.699999999999984635 ) ) ;
#23 = MECHANICAL_CONTEXT ( 'NONE', #105, 'mechanical' ) ;
#24 = PERSON_AND_ORGANIZATION_ROLE ( 'creator' ) ;
#25 = CONICAL_SURFACE ( 'NONE', #70, 2.400000000000001243, 0.7853981633974396193 ) ;
#26 = ADVANCED_FACE ( 'NONE', ( #15 ), #112, .T. ) ;
#27 = APPROVAL_PERSON_ORGANIZATION ( #92, #106, #122 ) ;
#28 = DESIGN_CONTEXT ( 'detailed design', #19, 'design' ) ;
#29 = AXIS2_PLACEMENT_3D ( 'NONE', #44, #162, #161 ) ;
#30 = ADVANCED_FACE ( 'NONE', ( #116, #115 ), #196, .T. ) ;
#31 = DIRECTION ( 'NONE',  ( -3.491481338843133355E-15, 1.224646799147353207E-16, -1.000000000000000000 ) ) ;
#32 = PLANE ( 'NONE',  #143 ) ;
#33 = DIRECTION ( 'NONE',  ( -4.275831445896958607E-31, -1.000000000000000000, -1.224646799147353207E-16 ) ) ;
#34 = VERTEX_POINT ( 'NONE', #103 ) ;
#35 = CARTESIAN_POINT ( 'NONE',  ( -6.413747168845437253E-32, 2.249639673992786070E-33, -1.836970198721029441E-17 ) ) ;
#36 =( NAMED_UNIT ( * ) SI_UNIT ( $, .STERADIAN. ) SOLID_ANGLE_UNIT ( ) );
#37 = CALENDAR_DATE ( 2021, 24, 11 ) ;
#38 = PERSON_AND_ORGANIZATION ( #43, #17 ) ;
#39 = COORDINATED_UNIVERSAL_TIME_OFFSET ( 1, 0, .AHEAD. ) ;
#40 = EDGE_LOOP ( 'NONE', ( #14 ) ) ;
#41 = PRODUCT_DEFINITION_FORMATION_WITH_SPECIFIED_SOURCE ( 'ANY', '', #201, .NOT_KNOWN. ) ;
#42 = ORIENTED_EDGE ( 'NONE', *, *, #124, .F. ) ;
#43 = PERSON ( 'UNSPECIFIED', 'UNSPECIFIED', 'UNSPECIFIED', ('UNSPECIFIED'), ('UNSPECIFIED'), ('UNSPECIFIED') ) ;
#44 = CARTESIAN_POINT ( 'NONE',  ( 0.0000000000000000000, 0.0000000000000000000, 0.0000000000000000000 ) ) ;
#45 = DIRECTION ( 'NONE',  ( 5.135813185032639159E-31, 1.000000000000000000, 1.445602896647342121E-16 ) ) ;
#46 = CC_DESIGN_DATE_AND_TIME_ASSIGNMENT ( #10, #50, ( #186 ) ) ;
#47 = DIRECTION ( 'NONE',  ( -3.491481338843133355E-15, 1.224646799147353207E-16, -1.000000000000000000 ) ) ;
#48 = ADVANCED_FACE ( 'NONE', ( #141 ), #68, .F. ) ;
#49 = CARTESIAN_POINT ( 'NONE',  ( 9.426999614876406417E-15, -3.903127820947800678E-16, 2.699999999999984635 ) ) ;
#50 = DATE_TIME_ROLE ( 'creation_date' ) ;
#51 = DATE_AND_TIME ( #109, #179 ) ;
#52 = CC_DESIGN_DATE_AND_TIME_ASSIGNMENT ( #168, #138, ( #2 ) ) ;
#53 = PERSON_AND_ORGANIZATION_ROLE ( 'design_owner' ) ;
#54 = CIRCLE ( 'NONE', #99, 2.400000000000001243 ) ;
#55 = MANIFOLD_SOLID_BREP ( 'Corps-Déplacer/Copier2[1]', #76 ) ;
#56 = ORIENTED_EDGE ( 'NONE', *, *, #145, .T. ) ;
#57 = EDGE_LOOP ( 'NONE', ( #202 ) ) ;
#58 = MANIFOLD_SOLID_BREP ( 'Corps-Déplacer/Copier2[2]', #203 ) ;
#59 = ADVANCED_FACE ( 'NONE', ( #6 ), #159, .F. ) ;
#60 = CIRCLE ( 'NONE', #84, 2.999999999999994227 ) ;
#61 = EDGE_LOOP ( 'NONE', ( #139 ) ) ;
#62 = DIRECTION ( 'NONE',  ( -3.491481338843133355E-15, 1.224646799147353207E-16, -1.000000000000000000 ) ) ;
#63 = CC_DESIGN_PERSON_AND_ORGANIZATION_ASSIGNMENT ( #72, #12, ( #41 ) ) ;
#64 = CARTESIAN_POINT ( 'NONE',  ( -1.282749433769087451E-31, 4.499279347985572139E-33, -3.673940397442058882E-17 ) ) ;
#65 = AXIS2_PLACEMENT_3D ( 'NONE', #49, #82, #33 ) ;
#66 = DIRECTION ( 'NONE',  ( 0.0000000000000000000, 1.000000000000000000, 0.0000000000000000000 ) ) ;
#67 = DIRECTION ( 'NONE',  ( 5.135813185032639159E-31, 1.000000000000000000, 1.445602896647342121E-16 ) ) ;
#68 = PLANE ( 'NONE',  #128 ) ;
#69 = APPROVAL_STATUS ( 'not_yet_approved' ) ;
#70 = AXIS2_PLACEMENT_3D ( 'NONE', #175, #62, #9 ) ;
#71 = PERSON_AND_ORGANIZATION_ROLE ( 'classification_officer' ) ;
#72 = PERSON_AND_ORGANIZATION ( #43, #17 ) ;
#73 = CC_DESIGN_SECURITY_CLASSIFICATION ( #2, ( #41 ) ) ;
#74 = SHAPE_DEFINITION_REPRESENTATION ( #149, #94 ) ;
#75 = EDGE_LOOP ( 'NONE', ( #189 ) ) ;
#76 = CLOSED_SHELL ( 'NONE', ( #59, #91, #158, #48 ) ) ;
#77 = EDGE_LOOP ( 'NONE', ( #157 ) ) ;
#78 = CIRCLE ( 'NONE', #188, 2.999999999999994227 ) ;
#79 = CC_DESIGN_APPROVAL ( #151, ( #2 ) ) ;
#80 = FACE_OUTER_BOUND ( 'NONE', #77, .T. ) ;
#81 = CC_DESIGN_PERSON_AND_ORGANIZATION_ASSIGNMENT ( #107, #71, ( #2 ) ) ;
#82 = DIRECTION ( 'NONE',  ( 3.491481338843133355E-15, -1.224646799147353207E-16, 1.000000000000000000 ) ) ;
#83 = CARTESIAN_POINT ( 'NONE',  ( -1.282749433769087451E-31, 4.499279347985572139E-33, -3.673940397442058882E-17 ) ) ;
#84 = AXIS2_PLACEMENT_3D ( 'NONE', #140, #192, #45 ) ;
#85 = APPROVAL_PERSON_ORGANIZATION ( #123, #151, #185 ) ;
#86 = VERTEX_POINT ( 'NONE', #133 ) ;
#87 = VERTEX_POINT ( 'NONE', #146 ) ;
#88 = COORDINATED_UNIVERSAL_TIME_OFFSET ( 1, 0, .AHEAD. ) ;
#89 = APPLICATION_PROTOCOL_DEFINITION ( 'international standard', 'config_control_design', 1994, #19 ) ;
#90 = COORDINATED_UNIVERSAL_TIME_OFFSET ( 1, 0, .AHEAD. ) ;
#91 = ADVANCED_FACE ( 'NONE', ( #111, #160 ), #173, .T. ) ;
#92 = PERSON_AND_ORGANIZATION ( #43, #17 ) ;
#93 = ORIENTED_EDGE ( 'NONE', *, *, #176, .T. ) ;
#94 = ADVANCED_BREP_SHAPE_REPRESENTATION ( '49020', ( #55, #58, #134 ), #118 ) ;
#95 = EDGE_LOOP ( 'NONE', ( #56 ) ) ;
#96 = APPROVAL ( #69, 'UNSPECIFIED' ) ;
#97 = EDGE_CURVE ( 'NONE', #34, #34, #54, .T. ) ;
#98 = CARTESIAN_POINT ( 'NONE',  ( 1.990144363140586139E-13, 1.799711739194219550E-32, 57.00000000000000000 ) ) ;
#99 = AXIS2_PLACEMENT_3D ( 'NONE', #104, #130, #177 ) ;
#100 = LOCAL_TIME ( 15, 55, 41.00000000000000000, #180 ) ;
#101 = CARTESIAN_POINT ( 'NONE',  ( 9.426999614876406417E-15, -3.903127820947800678E-16, 2.699999999999984635 ) ) ;
#102 = DIRECTION ( 'NONE',  ( 3.491481338843133355E-15, -1.224646799147353207E-16, 1.000000000000000000 ) ) ;
#103 = CARTESIAN_POINT ( 'NONE',  ( 1.990144363140586139E-13, 2.399999999999994138, 57.00000000000000000 ) ) ;
#104 = CARTESIAN_POINT ( 'NONE',  ( 1.990144363140586139E-13, -6.980486755139912911E-15, 57.00000000000000000 ) ) ;
#105 = APPLICATION_CONTEXT ( 'configuration controlled 3d designs of mechanical parts and assemblies' ) ;
#106 = APPROVAL ( #183, 'UNSPECIFIED' ) ;
#107 = PERSON_AND_ORGANIZATION ( #43, #17 ) ;
#108 = SECURITY_CLASSIFICATION_LEVEL ( 'unclassified' ) ;
#109 = CALENDAR_DATE ( 2021, 24, 11 ) ;
#110 = CC_DESIGN_APPROVAL ( #96, ( #41 ) ) ;
#111 = FACE_OUTER_BOUND ( 'NONE', #61, .T. ) ;
#112 = PLANE ( 'NONE',  #65 ) ;
#113 = CIRCLE ( 'NONE', #178, 3.000000000000000888 ) ;
#114 = DIRECTION ( 'NONE',  ( -4.275831445896958607E-31, -1.000000000000000000, -1.224646799147353207E-16 ) ) ;
#115 = FACE_BOUND ( 'NONE', #125, .T. ) ;
#116 = FACE_OUTER_BOUND ( 'NONE', #170, .T. ) ;
#117 = AXIS2_PLACEMENT_3D ( 'NONE', #83, #102, #142 ) ;
#118 =( GEOMETRIC_REPRESENTATION_CONTEXT ( 3 ) GLOBAL_UNCERTAINTY_ASSIGNED_CONTEXT ( ( #187 ) ) GLOBAL_UNIT_ASSIGNED_CONTEXT ( ( #169, #153, #36 ) ) REPRESENTATION_CONTEXT ( 'NONE', 'WORKASPACE' ) );
#119 = APPLICATION_PROTOCOL_DEFINITION ( 'international standard', 'config_control_design', 1994, #105 ) ;
#120 = APPROVAL_DATE_TIME ( #197, #96 ) ;
#121 = CARTESIAN_POINT ( 'NONE',  ( 0.0000000000000000000, 0.0000000000000000000, 0.0000000000000000000 ) ) ;
#122 = APPROVAL_ROLE ( '' ) ;
#123 = PERSON_AND_ORGANIZATION ( #43, #17 ) ;
#124 = EDGE_CURVE ( 'NONE', #191, #191, #172, .T. ) ;
#125 = EDGE_LOOP ( 'NONE', ( #42 ) ) ;
#126 = LOCAL_TIME ( 15, 55, 41.00000000000000000, #90 ) ;
#127 = EDGE_CURVE ( 'NONE', #86, #86, #113, .T. ) ;
#128 = AXIS2_PLACEMENT_3D ( 'NONE', #98, #47, #190 ) ;
#129 = ORIENTED_EDGE ( 'NONE', *, *, #97, .T. ) ;
#130 = DIRECTION ( 'NONE',  ( -3.491481338843133355E-15, 1.224646799147353207E-16, -1.000000000000000000 ) ) ;
#131 = DIRECTION ( 'NONE',  ( -3.491481338843133355E-15, 1.224646799147353207E-16, -1.000000000000000000 ) ) ;
#132 = DIRECTION ( 'NONE',  ( 4.275831445896958607E-31, 1.000000000000000000, 1.224646799147353207E-16 ) ) ;
#133 = CARTESIAN_POINT ( 'NONE',  ( 1.969195475107526960E-13, 2.999999999999993783, 56.39999999999999147 ) ) ;
#134 = AXIS2_PLACEMENT_3D ( 'NONE', #121, #195, #199 ) ;
#135 = CALENDAR_DATE ( 2021, 24, 11 ) ;
#136 = COORDINATED_UNIVERSAL_TIME_OFFSET ( 1, 0, .AHEAD. ) ;
#137 = ADVANCED_FACE ( 'NONE', ( #80 ), #32, .T. ) ;
#138 = DATE_TIME_ROLE ( 'classification_date' ) ;
#139 = ORIENTED_EDGE ( 'NONE', *, *, #145, .F. ) ;
#140 = CARTESIAN_POINT ( 'NONE',  ( 9.426999614876404839E-15, -3.306546357697834012E-16, 2.699999999999984190 ) ) ;
#141 = FACE_OUTER_BOUND ( 'NONE', #57, .T. ) ;
#142 = DIRECTION ( 'NONE',  ( -4.275831445896958607E-31, -1.000000000000000000, -1.224646799147352961E-16 ) ) ;
#143 = AXIS2_PLACEMENT_3D ( 'NONE', #35, #131, #132 ) ;
#144 = FACE_OUTER_BOUND ( 'NONE', #171, .T. ) ;
#145 = EDGE_CURVE ( 'NONE', #194, #194, #60, .T. ) ;
#146 = CARTESIAN_POINT ( 'NONE',  ( 9.426999614876406417E-15, 2.999999999999993783, 2.699999999999984635 ) ) ;
#147 = CALENDAR_DATE ( 2021, 24, 11 ) ;
#148 = DATE_AND_TIME ( #37, #100 ) ;
#149 = PRODUCT_DEFINITION_SHAPE ( 'NONE', 'NONE',  #186 ) ;
#150 = PERSON_AND_ORGANIZATION_ROLE ( 'creator' ) ;
#151 = APPROVAL ( #200, 'UNSPECIFIED' ) ;
#152 = CC_DESIGN_PERSON_AND_ORGANIZATION_ASSIGNMENT ( #164, #150, ( #186 ) ) ;
#153 =( NAMED_UNIT ( * ) PLANE_ANGLE_UNIT ( ) SI_UNIT ( $, .RADIAN. ) );
#154 = AXIS2_PLACEMENT_3D ( 'NONE', #64, #7, #20 ) ;
#155 = LOCAL_TIME ( 15, 55, 41.00000000000000000, #136 ) ;
#156 = ORIENTED_EDGE ( 'NONE', *, *, #127, .F. ) ;
#157 = ORIENTED_EDGE ( 'NONE', *, *, #124, .T. ) ;
#158 = ADVANCED_FACE ( 'NONE', ( #144, #5 ), #25, .T. ) ;
#159 = PLANE ( 'NONE',  #166 ) ;
#160 = FACE_OUTER_BOUND ( 'NONE', #75, .T. ) ;
#161 = DIRECTION ( 'NONE',  ( 4.275831445896958607E-31, 1.000000000000000000, 1.224646799147353207E-16 ) ) ;
#162 = DIRECTION ( 'NONE',  ( -3.491481338843133355E-15, 1.224646799147353207E-16, -1.000000000000000000 ) ) ;
#163 = CARTESIAN_POINT ( 'NONE',  ( 9.426999614876404839E-15, -3.306546357697834012E-16, 2.699999999999984190 ) ) ;
#164 = PERSON_AND_ORGANIZATION ( #43, #17 ) ;
#165 = PERSON_AND_ORGANIZATION ( #43, #17 ) ;
#166 = AXIS2_PLACEMENT_3D ( 'NONE', #101, #18, #114 ) ;
#167 = APPROVAL_DATE_TIME ( #51, #151 ) ;
#168 = DATE_AND_TIME ( #198, #155 ) ;
#169 =( LENGTH_UNIT ( ) NAMED_UNIT ( * ) SI_UNIT ( .MILLI., .METRE. ) );
#170 = EDGE_LOOP ( 'NONE', ( #93 ) ) ;
#171 = EDGE_LOOP ( 'NONE', ( #156 ) ) ;
#172 = CIRCLE ( 'NONE', #154, 0.2999999999999999889 ) ;
#173 = CYLINDRICAL_SURFACE ( 'NONE', #29, 2.999999999999997335 ) ;
#174 = CARTESIAN_POINT ( 'NONE',  ( 1.969195475107526960E-13, -6.907007947191071191E-15, 56.39999999999999147 ) ) ;
#175 = CARTESIAN_POINT ( 'NONE',  ( 1.990144363140586139E-13, -6.980486755139912911E-15, 57.00000000000000000 ) ) ;
#176 = EDGE_CURVE ( 'NONE', #87, #87, #78, .T. ) ;
#177 = DIRECTION ( 'NONE',  ( 0.0000000000000000000, 1.000000000000000000, 0.0000000000000000000 ) ) ;
#178 = AXIS2_PLACEMENT_3D ( 'NONE', #174, #31, #66 ) ;
#179 = LOCAL_TIME ( 15, 55, 41.00000000000000000, #39 ) ;
#180 = COORDINATED_UNIVERSAL_TIME_OFFSET ( 1, 0, .AHEAD. ) ;
#181 = PERSON_AND_ORGANIZATION ( #43, #17 ) ;
#182 = CC_DESIGN_PERSON_AND_ORGANIZATION_ASSIGNMENT ( #38, #24, ( #41 ) ) ;
#183 = APPROVAL_STATUS ( 'not_yet_approved' ) ;
#184 = APPROVAL_ROLE ( '' ) ;
#185 = APPROVAL_ROLE ( '' ) ;
#186 = PRODUCT_DEFINITION ( 'UNKNOWN', '', #41, #28 ) ;
#187 = UNCERTAINTY_MEASURE_WITH_UNIT (LENGTH_MEASURE( 1.000000000000000082E-05 ), #169, 'distance_accuracy_value', 'NONE');
#188 = AXIS2_PLACEMENT_3D ( 'NONE', #163, #193, #67 ) ;
#189 = ORIENTED_EDGE ( 'NONE', *, *, #127, .T. ) ;
#190 = DIRECTION ( 'NONE',  ( 4.275831445896958607E-31, 1.000000000000000000, 1.224646799147353207E-16 ) ) ;
#191 = VERTEX_POINT ( 'NONE', #21 ) ;
#192 = DIRECTION ( 'NONE',  ( -3.491481338843133355E-15, 1.224646799147353207E-16, -1.000000000000000000 ) ) ;
#193 = DIRECTION ( 'NONE',  ( -3.491481338843133355E-15, 1.224646799147353207E-16, -1.000000000000000000 ) ) ;
#194 = VERTEX_POINT ( 'NONE', #22 ) ;
#195 = DIRECTION ( 'NONE',  ( 0.0000000000000000000, 0.0000000000000000000, 1.000000000000000000 ) ) ;
#196 = CONICAL_SURFACE ( 'NONE', #117, 0.2999999999999999889, 0.7853981633974502774 ) ;
#197 = DATE_AND_TIME ( #135, #11 ) ;
#198 = CALENDAR_DATE ( 2021, 24, 11 ) ;
#199 = DIRECTION ( 'NONE',  ( 1.000000000000000000, 0.0000000000000000000, 0.0000000000000000000 ) ) ;
#200 = APPROVAL_STATUS ( 'not_yet_approved' ) ;
#201 = PRODUCT ( '49020', '49020', '', ( #23 ) ) ;
#202 = ORIENTED_EDGE ( 'NONE', *, *, #97, .F. ) ;
#203 = CLOSED_SHELL ( 'NONE', ( #137, #30, #26 ) ) ;
ENDSEC;
END-ISO-10303-21;
