ISO-10303-21;
HEADER;
FILE_DESCRIPTION (( 'STEP AP203' ),
    '1' );
FILE_NAME ('49019.step',
    '2021-11-24T14:55:41',
    ( '' ),
    ( '' ),
    'SwSTEP 2.0',
    'SolidWorks 2019',
    '' );
FILE_SCHEMA (( 'CONFIG_CONTROL_DESIGN' ));
ENDSEC;

DATA;
#1 = ORIENTED_EDGE ( 'NONE', *, *, #150, .T. ) ;
#2 = APPLICATION_CONTEXT ( 'configuration controlled 3d designs of mechanical parts and assemblies' ) ;
#3 = CONICAL_SURFACE ( 'NONE', #189, 0.2500000000000000000, 0.7853981633974503884 ) ;
#4 = CC_DESIGN_SECURITY_CLASSIFICATION ( #111, ( #124 ) ) ;
#5 = FACE_BOUND ( 'NONE', #61, .T. ) ;
#6 = DIRECTION ( 'NONE',  ( 3.491481338843133355E-15, -1.224646799147353207E-16, 1.000000000000000000 ) ) ;
#7 = DIRECTION ( 'NONE',  ( -4.275831445896959482E-31, -1.000000000000000000, -1.224646799147353207E-16 ) ) ;
#8 = CC_DESIGN_PERSON_AND_ORGANIZATION_ASSIGNMENT ( #105, #169, ( #124 ) ) ;
#9 = PLANE ( 'NONE',  #148 ) ;
#10 = FACE_OUTER_BOUND ( 'NONE', #95, .T. ) ;
#11 = CARTESIAN_POINT ( 'NONE',  ( 1.745740669421566678E-13, -6.123233995736766085E-15, 50.00000000000000000 ) ) ;
#12 = CC_DESIGN_APPROVAL ( #55, ( #111 ) ) ;
#13 = CARTESIAN_POINT ( 'NONE',  ( 1.745740669421566678E-13, 1.999999999999995337, 50.00000000000000000 ) ) ;
#14 = DATE_AND_TIME ( #40, #85 ) ;
#15 = COORDINATED_UNIVERSAL_TIME_OFFSET ( 1, 0, .AHEAD. ) ;
#16 = ORIENTED_EDGE ( 'NONE', *, *, #90, .T. ) ;
#17 = EDGE_LOOP ( 'NONE', ( #33 ) ) ;
#18 = ADVANCED_FACE ( 'NONE', ( #47, #10 ), #163, .T. ) ;
#19 = CARTESIAN_POINT ( 'NONE',  ( 0.0000000000000000000, 0.0000000000000000000, 0.0000000000000000000 ) ) ;
#20 = EDGE_LOOP ( 'NONE', ( #1 ) ) ;
#21 = CARTESIAN_POINT ( 'NONE',  ( 1.728283262727351074E-13, -6.062001655779398511E-15, 49.50000000000000000 ) ) ;
#22 = DIRECTION ( 'NONE',  ( -3.491481338843133355E-15, 1.224646799147353207E-16, -1.000000000000000000 ) ) ;
#23 = PERSON_AND_ORGANIZATION ( #80, #73 ) ;
#24 = PERSON_AND_ORGANIZATION ( #80, #73 ) ;
#25 =( GEOMETRIC_REPRESENTATION_CONTEXT ( 3 ) GLOBAL_UNCERTAINTY_ASSIGNED_CONTEXT ( ( #188 ) ) GLOBAL_UNIT_ASSIGNED_CONTEXT ( ( #66, #109, #41 ) ) REPRESENTATION_CONTEXT ( 'NONE', 'WORKASPACE' ) );
#26 = DIRECTION ( 'NONE',  ( 0.0000000000000000000, 0.0000000000000000000, 1.000000000000000000 ) ) ;
#27 = CIRCLE ( 'NONE', #154, 0.2500000000000000000 ) ;
#28 = ADVANCED_FACE ( 'NONE', ( #44 ), #118, .T. ) ;
#29 = CC_DESIGN_APPROVAL ( #165, ( #124 ) ) ;
#30 = DESIGN_CONTEXT ( 'detailed design', #2, 'design' ) ;
#31 = ORIENTED_EDGE ( 'NONE', *, *, #178, .F. ) ;
#32 = ADVANCED_FACE ( 'NONE', ( #145, #5 ), #198, .T. ) ;
#33 = ORIENTED_EDGE ( 'NONE', *, *, #128, .T. ) ;
#34 = DIRECTION ( 'NONE',  ( 3.491481338843133355E-15, -1.224646799147353207E-16, 1.000000000000000000 ) ) ;
#35 = EDGE_LOOP ( 'NONE', ( #74 ) ) ;
#36 = ADVANCED_BREP_SHAPE_REPRESENTATION ( '49019', ( #57, #201, #161 ), #25 ) ;
#37 = CARTESIAN_POINT ( 'NONE',  ( 7.855833012397002718E-15, -2.755455298081528508E-16, 2.249999999999986677 ) ) ;
#38 = DIRECTION ( 'NONE',  ( -3.491481338843133355E-15, 1.224646799147353207E-16, -1.000000000000000000 ) ) ;
#39 = CC_DESIGN_PERSON_AND_ORGANIZATION_ASSIGNMENT ( #24, #84, ( #124 ) ) ;
#40 = CALENDAR_DATE ( 2021, 24, 11 ) ;
#41 =( NAMED_UNIT ( * ) SI_UNIT ( $, .STERADIAN. ) SOLID_ANGLE_UNIT ( ) );
#42 = CARTESIAN_POINT ( 'NONE',  ( 0.0000000000000000000, 0.0000000000000000000, 0.0000000000000000000 ) ) ;
#43 = CC_DESIGN_DATE_AND_TIME_ASSIGNMENT ( #121, #136, ( #186 ) ) ;
#44 = FACE_OUTER_BOUND ( 'NONE', #17, .T. ) ;
#45 = CARTESIAN_POINT ( 'NONE',  ( 1.745740669421566678E-13, 1.499759782661849671E-32, 50.00000000000000000 ) ) ;
#46 = CC_DESIGN_PERSON_AND_ORGANIZATION_ASSIGNMENT ( #23, #200, ( #89 ) ) ;
#47 = FACE_OUTER_BOUND ( 'NONE', #160, .T. ) ;
#48 = MECHANICAL_CONTEXT ( 'NONE', #100, 'mechanical' ) ;
#49 = AXIS2_PLACEMENT_3D ( 'NONE', #45, #168, #179 ) ;
#50 = APPROVAL_PERSON_ORGANIZATION ( #135, #55, #101 ) ;
#51 = APPROVAL_STATUS ( 'not_yet_approved' ) ;
#52 = CIRCLE ( 'NONE', #92, 2.499999999999995559 ) ;
#53 = APPLICATION_PROTOCOL_DEFINITION ( 'international standard', 'config_control_design', 1994, #100 ) ;
#54 = SECURITY_CLASSIFICATION_LEVEL ( 'unclassified' ) ;
#55 = APPROVAL ( #155, 'UNSPECIFIED' ) ;
#56 = ADVANCED_FACE ( 'NONE', ( #114 ), #9, .F. ) ;
#57 = MANIFOLD_SOLID_BREP ( 'Corps-Déplacer/Copier2[1]', #181 ) ;
#58 = EDGE_LOOP ( 'NONE', ( #99 ) ) ;
#59 = DIRECTION ( 'NONE',  ( 6.162975822039166115E-31, 1.000000000000000000, 1.734723475976810299E-16 ) ) ;
#60 = FACE_OUTER_BOUND ( 'NONE', #20, .T. ) ;
#61 = EDGE_LOOP ( 'NONE', ( #177 ) ) ;
#62 = PRODUCT_DEFINITION_SHAPE ( 'NONE', 'NONE',  #186 ) ;
#63 = DIRECTION ( 'NONE',  ( -4.275831445896958607E-31, -1.000000000000000000, -1.224646799147353207E-16 ) ) ;
#64 = PERSON_AND_ORGANIZATION_ROLE ( 'creator' ) ;
#65 = CLOSED_SHELL ( 'NONE', ( #28, #127, #94 ) ) ;
#66 =( LENGTH_UNIT ( ) NAMED_UNIT ( * ) SI_UNIT ( .MILLI., .METRE. ) );
#67 = COORDINATED_UNIVERSAL_TIME_OFFSET ( 1, 0, .AHEAD. ) ;
#68 = CARTESIAN_POINT ( 'NONE',  ( 7.855833012397004295E-15, 2.499999999999995115, 2.249999999999987121 ) ) ;
#69 = CALENDAR_DATE ( 2021, 24, 11 ) ;
#70 = EDGE_LOOP ( 'NONE', ( #31 ) ) ;
#71 = CIRCLE ( 'NONE', #173, 2.500000000000001332 ) ;
#72 = LOCAL_TIME ( 15, 55, 41.00000000000000000, #187 ) ;
#73 = ORGANIZATION ( 'UNSPECIFIED', 'UNSPECIFIED', '' ) ;
#74 = ORIENTED_EDGE ( 'NONE', *, *, #128, .F. ) ;
#75 = DIRECTION ( 'NONE',  ( -3.491481338843133355E-15, 1.224646799147353207E-16, -1.000000000000000000 ) ) ;
#76 = CARTESIAN_POINT ( 'NONE',  ( 7.855833012397002718E-15, -2.755455298081528508E-16, 2.249999999999986677 ) ) ;
#77 = CIRCLE ( 'NONE', #131, 2.000000000000001332 ) ;
#78 = LOCAL_TIME ( 15, 55, 41.00000000000000000, #15 ) ;
#79 = DIRECTION ( 'NONE',  ( -3.491481338843133355E-15, 1.224646799147353207E-16, -1.000000000000000000 ) ) ;
#80 = PERSON ( 'UNSPECIFIED', 'UNSPECIFIED', 'UNSPECIFIED', ('UNSPECIFIED'), ('UNSPECIFIED'), ('UNSPECIFIED') ) ;
#81 = CARTESIAN_POINT ( 'NONE',  ( 7.855833012397004295E-15, -3.903127820947800185E-16, 2.249999999999987121 ) ) ;
#82 = DATE_AND_TIME ( #138, #190 ) ;
#83 = APPROVAL_DATE_TIME ( #14, #106 ) ;
#84 = PERSON_AND_ORGANIZATION_ROLE ( 'design_supplier' ) ;
#85 = LOCAL_TIME ( 15, 55, 41.00000000000000000, #172 ) ;
#86 = SHAPE_DEFINITION_REPRESENTATION ( #62, #36 ) ;
#87 = VERTEX_POINT ( 'NONE', #183 ) ;
#88 = APPLICATION_PROTOCOL_DEFINITION ( 'international standard', 'config_control_design', 1994, #2 ) ;
#89 = PRODUCT ( '49019', '49019', '', ( #48 ) ) ;
#90 = EDGE_CURVE ( 'NONE', #185, #185, #52, .T. ) ;
#91 = PERSON_AND_ORGANIZATION ( #80, #73 ) ;
#92 = AXIS2_PLACEMENT_3D ( 'NONE', #76, #38, #59 ) ;
#93 = LOCAL_TIME ( 15, 55, 41.00000000000000000, #153 ) ;
#94 = ADVANCED_FACE ( 'NONE', ( #147 ), #191, .T. ) ;
#95 = EDGE_LOOP ( 'NONE', ( #130 ) ) ;
#96 = CIRCLE ( 'NONE', #170, 2.499999999999995559 ) ;
#97 = FACE_BOUND ( 'NONE', #35, .T. ) ;
#98 = CARTESIAN_POINT ( 'NONE',  ( 1.745740669421566678E-13, -6.123233995736766085E-15, 50.00000000000000000 ) ) ;
#99 = ORIENTED_EDGE ( 'NONE', *, *, #150, .F. ) ;
#100 = APPLICATION_CONTEXT ( 'configuration controlled 3d designs of mechanical parts and assemblies' ) ;
#101 = APPROVAL_ROLE ( '' ) ;
#102 = PLANE ( 'NONE',  #49 ) ;
#103 = APPROVAL_ROLE ( '' ) ;
#104 = DATE_TIME_ROLE ( 'classification_date' ) ;
#105 = PERSON_AND_ORGANIZATION ( #80, #73 ) ;
#106 = APPROVAL ( #51, 'UNSPECIFIED' ) ;
#107 = PERSON_AND_ORGANIZATION ( #80, #73 ) ;
#108 = AXIS2_PLACEMENT_3D ( 'NONE', #81, #146, #117 ) ;
#109 =( NAMED_UNIT ( * ) PLANE_ANGLE_UNIT ( ) SI_UNIT ( $, .RADIAN. ) );
#110 = DIRECTION ( 'NONE',  ( 0.0000000000000000000, 1.000000000000000000, 0.0000000000000000000 ) ) ;
#111 = SECURITY_CLASSIFICATION ( '', '', #54 ) ;
#112 = ORIENTED_EDGE ( 'NONE', *, *, #90, .F. ) ;
#113 = ORIENTED_EDGE ( 'NONE', *, *, #162, .F. ) ;
#114 = FACE_OUTER_BOUND ( 'NONE', #175, .T. ) ;
#115 = AXIS2_PLACEMENT_3D ( 'NONE', #98, #79, #192 ) ;
#116 = DIRECTION ( 'NONE',  ( 0.0000000000000000000, 1.000000000000000000, 0.0000000000000000000 ) ) ;
#117 = DIRECTION ( 'NONE',  ( -4.275831445896958607E-31, -1.000000000000000000, -1.224646799147353207E-16 ) ) ;
#118 = PLANE ( 'NONE',  #119 ) ;
#119 = AXIS2_PLACEMENT_3D ( 'NONE', #180, #166, #134 ) ;
#120 = APPROVAL_STATUS ( 'not_yet_approved' ) ;
#121 = DATE_AND_TIME ( #122, #78 ) ;
#122 = CALENDAR_DATE ( 2021, 24, 11 ) ;
#123 = VERTEX_POINT ( 'NONE', #171 ) ;
#124 = PRODUCT_DEFINITION_FORMATION_WITH_SPECIFIED_SOURCE ( 'ANY', '', #89, .NOT_KNOWN. ) ;
#125 = DIRECTION ( 'NONE',  ( -3.491481338843133355E-15, 1.224646799147353207E-16, -1.000000000000000000 ) ) ;
#126 = PERSON_AND_ORGANIZATION_ROLE ( 'classification_officer' ) ;
#127 = ADVANCED_FACE ( 'NONE', ( #60, #97 ), #3, .T. ) ;
#128 = EDGE_CURVE ( 'NONE', #87, #87, #27, .T. ) ;
#129 = DIRECTION ( 'NONE',  ( -3.491481338843133355E-15, 1.224646799147353207E-16, -1.000000000000000000 ) ) ;
#130 = ORIENTED_EDGE ( 'NONE', *, *, #162, .T. ) ;
#131 = AXIS2_PLACEMENT_3D ( 'NONE', #11, #125, #110 ) ;
#132 = CC_DESIGN_PERSON_AND_ORGANIZATION_ASSIGNMENT ( #202, #126, ( #111 ) ) ;
#133 = CARTESIAN_POINT ( 'NONE',  ( -1.068957861474239433E-31, 3.749399456654644020E-33, -3.061616997868383018E-17 ) ) ;
#134 = DIRECTION ( 'NONE',  ( 4.275831445896958607E-31, 1.000000000000000000, 1.224646799147353207E-16 ) ) ;
#135 = PERSON_AND_ORGANIZATION ( #80, #73 ) ;
#136 = DATE_TIME_ROLE ( 'creation_date' ) ;
#137 = CALENDAR_DATE ( 2021, 24, 11 ) ;
#138 = CALENDAR_DATE ( 2021, 24, 11 ) ;
#139 = VERTEX_POINT ( 'NONE', #13 ) ;
#140 = ADVANCED_FACE ( 'NONE', ( #193 ), #102, .F. ) ;
#141 = PRODUCT_RELATED_PRODUCT_CATEGORY ( 'detail', '', ( #89 ) ) ;
#142 = CARTESIAN_POINT ( 'NONE',  ( 1.728283262727351074E-13, 2.499999999999995115, 49.50000000000000000 ) ) ;
#143 = DATE_AND_TIME ( #69, #72 ) ;
#144 = CC_DESIGN_APPROVAL ( #106, ( #186 ) ) ;
#145 = FACE_OUTER_BOUND ( 'NONE', #196, .T. ) ;
#146 = DIRECTION ( 'NONE',  ( 3.491481338843133355E-15, -1.224646799147353207E-16, 1.000000000000000000 ) ) ;
#147 = FACE_OUTER_BOUND ( 'NONE', #58, .T. ) ;
#148 = AXIS2_PLACEMENT_3D ( 'NONE', #176, #34, #63 ) ;
#149 = DIRECTION ( 'NONE',  ( 4.275831445896959482E-31, 1.000000000000000000, 1.224646799147353207E-16 ) ) ;
#150 = EDGE_CURVE ( 'NONE', #123, #123, #96, .T. ) ;
#151 = DIRECTION ( 'NONE',  ( -3.491481338843133355E-15, 1.224646799147353207E-16, -1.000000000000000000 ) ) ;
#152 = APPROVAL_DATE_TIME ( #82, #55 ) ;
#153 = COORDINATED_UNIVERSAL_TIME_OFFSET ( 1, 0, .AHEAD. ) ;
#154 = AXIS2_PLACEMENT_3D ( 'NONE', #133, #75, #195 ) ;
#155 = APPROVAL_STATUS ( 'not_yet_approved' ) ;
#156 = VERTEX_POINT ( 'NONE', #142 ) ;
#157 = APPROVAL_ROLE ( '' ) ;
#158 = CC_DESIGN_PERSON_AND_ORGANIZATION_ASSIGNMENT ( #91, #64, ( #186 ) ) ;
#159 = DIRECTION ( 'NONE',  ( 1.000000000000000000, 0.0000000000000000000, 0.0000000000000000000 ) ) ;
#160 = EDGE_LOOP ( 'NONE', ( #112 ) ) ;
#161 = AXIS2_PLACEMENT_3D ( 'NONE', #42, #26, #159 ) ;
#162 = EDGE_CURVE ( 'NONE', #156, #156, #71, .T. ) ;
#163 = CYLINDRICAL_SURFACE ( 'NONE', #203, 2.499999999999998668 ) ;
#164 = CARTESIAN_POINT ( 'NONE',  ( -1.068957861474239433E-31, 3.749399456654644020E-33, -3.061616997868383018E-17 ) ) ;
#165 = APPROVAL ( #120, 'UNSPECIFIED' ) ;
#166 = DIRECTION ( 'NONE',  ( -3.491481338843133355E-15, 1.224646799147353207E-16, -1.000000000000000000 ) ) ;
#167 = DIRECTION ( 'NONE',  ( 6.162975822039166115E-31, 1.000000000000000000, 1.734723475976810299E-16 ) ) ;
#168 = DIRECTION ( 'NONE',  ( -3.491481338843133355E-15, 1.224646799147353207E-16, -1.000000000000000000 ) ) ;
#169 = PERSON_AND_ORGANIZATION_ROLE ( 'creator' ) ;
#170 = AXIS2_PLACEMENT_3D ( 'NONE', #37, #22, #167 ) ;
#171 = CARTESIAN_POINT ( 'NONE',  ( 7.855833012397004295E-15, 2.499999999999995115, 2.249999999999987121 ) ) ;
#172 = COORDINATED_UNIVERSAL_TIME_OFFSET ( 1, 0, .AHEAD. ) ;
#173 = AXIS2_PLACEMENT_3D ( 'NONE', #21, #151, #116 ) ;
#174 = CC_DESIGN_DATE_AND_TIME_ASSIGNMENT ( #143, #104, ( #111 ) ) ;
#175 = EDGE_LOOP ( 'NONE', ( #16 ) ) ;
#176 = CARTESIAN_POINT ( 'NONE',  ( 7.855833012397004295E-15, -3.903127820947800185E-16, 2.249999999999987121 ) ) ;
#177 = ORIENTED_EDGE ( 'NONE', *, *, #178, .T. ) ;
#178 = EDGE_CURVE ( 'NONE', #139, #139, #77, .T. ) ;
#179 = DIRECTION ( 'NONE',  ( 4.275831445896958607E-31, 1.000000000000000000, 1.224646799147353207E-16 ) ) ;
#180 = CARTESIAN_POINT ( 'NONE',  ( -5.344789307371197163E-32, 1.874699728327322010E-33, -1.530808498934191509E-17 ) ) ;
#181 = CLOSED_SHELL ( 'NONE', ( #56, #18, #32, #140 ) ) ;
#182 = APPROVAL_PERSON_ORGANIZATION ( #107, #106, #157 ) ;
#183 = CARTESIAN_POINT ( 'NONE',  ( 2.138211768073756517E-47, 0.2500000000000000000, 0.0000000000000000000 ) ) ;
#184 = APPROVAL_DATE_TIME ( #199, #165 ) ;
#185 = VERTEX_POINT ( 'NONE', #68 ) ;
#186 = PRODUCT_DEFINITION ( 'UNKNOWN', '', #124, #30 ) ;
#187 = COORDINATED_UNIVERSAL_TIME_OFFSET ( 1, 0, .AHEAD. ) ;
#188 = UNCERTAINTY_MEASURE_WITH_UNIT (LENGTH_MEASURE( 1.000000000000000082E-05 ), #66, 'distance_accuracy_value', 'NONE');
#189 = AXIS2_PLACEMENT_3D ( 'NONE', #164, #6, #7 ) ;
#190 = LOCAL_TIME ( 15, 55, 41.00000000000000000, #67 ) ;
#191 = PLANE ( 'NONE',  #108 ) ;
#192 = DIRECTION ( 'NONE',  ( 0.0000000000000000000, 1.000000000000000000, 0.0000000000000000000 ) ) ;
#193 = FACE_OUTER_BOUND ( 'NONE', #70, .T. ) ;
#194 = APPROVAL_PERSON_ORGANIZATION ( #197, #165, #103 ) ;
#195 = DIRECTION ( 'NONE',  ( 4.275831445896958607E-31, 1.000000000000000000, 1.224646799147353207E-16 ) ) ;
#196 = EDGE_LOOP ( 'NONE', ( #113 ) ) ;
#197 = PERSON_AND_ORGANIZATION ( #80, #73 ) ;
#198 = CONICAL_SURFACE ( 'NONE', #115, 2.000000000000001332, 0.7853981633974479459 ) ;
#199 = DATE_AND_TIME ( #137, #93 ) ;
#200 = PERSON_AND_ORGANIZATION_ROLE ( 'design_owner' ) ;
#201 = MANIFOLD_SOLID_BREP ( 'Corps-Déplacer/Copier2[2]', #65 ) ;
#202 = PERSON_AND_ORGANIZATION ( #80, #73 ) ;
#203 = AXIS2_PLACEMENT_3D ( 'NONE', #19, #129, #149 ) ;
ENDSEC;
END-ISO-10303-21;
