ISO-10303-21;
HEADER;
FILE_DESCRIPTION (( 'STEP AP203' ),
    '1' );
FILE_NAME ('48963.step',
    '2021-10-07T13:48:18',
    ( '' ),
    ( '' ),
    'SwSTEP 2.0',
    'SolidWorks 2019',
    '' );
FILE_SCHEMA (( 'CONFIG_CONTROL_DESIGN' ));
ENDSEC;

DATA;
#1 = FACE_BOUND ( 'NONE', #144, .T. ) ;
#2 = ORIENTED_EDGE ( 'NONE', *, *, #160, .T. ) ;
#3 = LOCAL_TIME ( 15, 48, 18.00000000000000000, #49 ) ;
#4 = FACE_OUTER_BOUND ( 'NONE', #192, .T. ) ;
#5 = CARTESIAN_POINT ( 'NONE',  ( 1.326762908760390423E-13, -4.653657836759941941E-15, 38.00000000000000000 ) ) ;
#6 = FACE_OUTER_BOUND ( 'NONE', #71, .T. ) ;
#7 = DIRECTION ( 'NONE',  ( -3.491481338843133355E-15, 1.224646799147353207E-16, -1.000000000000000000 ) ) ;
#8 = CYLINDRICAL_SURFACE ( 'NONE', #93, 0.9599999999999949685 ) ;
#9 = DIRECTION ( 'NONE',  ( 0.0000000000000000000, 1.000000000000000000, 0.0000000000000000000 ) ) ;
#10 = AXIS2_PLACEMENT_3D ( 'NONE', #220, #187, #30 ) ;
#11 =( NAMED_UNIT ( * ) SI_UNIT ( $, .STERADIAN. ) SOLID_ANGLE_UNIT ( ) );
#12 = APPROVAL_ROLE ( '' ) ;
#13 = PERSON_AND_ORGANIZATION ( #176, #138 ) ;
#14 = CC_DESIGN_SECURITY_CLASSIFICATION ( #25, ( #194 ) ) ;
#15 = UNCERTAINTY_MEASURE_WITH_UNIT (LENGTH_MEASURE( 1.000000000000000082E-05 ), #155, 'distance_accuracy_value', 'NONE');
#16 = AXIS2_PLACEMENT_3D ( 'NONE', #78, #57, #201 ) ;
#17 = CALENDAR_DATE ( 2021, 7, 10 ) ;
#18 = ORIENTED_EDGE ( 'NONE', *, *, #196, .F. ) ;
#19 = APPROVAL_DATE_TIME ( #35, #204 ) ;
#20 = ADVANCED_FACE ( 'NONE', ( #1, #208 ), #207, .T. ) ;
#21 = EDGE_LOOP ( 'NONE', ( #74 ) ) ;
#22 = CC_DESIGN_APPROVAL ( #32, ( #194 ) ) ;
#23 = CARTESIAN_POINT ( 'NONE',  ( 1.326762908760390423E-13, 0.7999999999999949374, 38.00000000000000000 ) ) ;
#24 = CARTESIAN_POINT ( 'NONE',  ( 4.189777606611760026E-14, -1.469576158976823947E-15, 12.00000000000000000 ) ) ;
#25 = SECURITY_CLASSIFICATION ( '', '', #173 ) ;
#26 = FACE_OUTER_BOUND ( 'NONE', #38, .T. ) ;
#27 = AXIS2_PLACEMENT_3D ( 'NONE', #24, #163, #129 ) ;
#28 = CARTESIAN_POINT ( 'NONE',  ( 4.189777606611760026E-14, -1.469576158976823947E-15, 12.00000000000000000 ) ) ;
#29 = VERTEX_POINT ( 'NONE', #177 ) ;
#30 = DIRECTION ( 'NONE',  ( 1.000000000000000000, 0.0000000000000000000, 0.0000000000000000000 ) ) ;
#31 = COORDINATED_UNIVERSAL_TIME_OFFSET ( 1, 0, .AHEAD. ) ;
#32 = APPROVAL ( #133, 'UNSPECIFIED' ) ;
#33 = AXIS2_PLACEMENT_3D ( 'NONE', #98, #164, #9 ) ;
#34 = COORDINATED_UNIVERSAL_TIME_OFFSET ( 1, 0, .AHEAD. ) ;
#35 = DATE_AND_TIME ( #139, #3 ) ;
#36 = ORIENTED_EDGE ( 'NONE', *, *, #160, .F. ) ;
#37 = ADVANCED_FACE ( 'NONE', ( #4 ), #81, .T. ) ;
#38 = EDGE_LOOP ( 'NONE', ( #124 ) ) ;
#39 = EDGE_LOOP ( 'NONE', ( #142 ) ) ;
#40 = DIRECTION ( 'NONE',  ( 3.491481338843133355E-15, -1.224646799147353207E-16, 1.000000000000000000 ) ) ;
#41 = DIRECTION ( 'NONE',  ( 0.0000000000000000000, 1.000000000000000000, 0.0000000000000000000 ) ) ;
#42 = DIRECTION ( 'NONE',  ( -3.491481338843133355E-15, 1.224646799147353207E-16, -1.000000000000000000 ) ) ;
#43 = PRODUCT ( '48963', '48963', '', ( #68 ) ) ;
#44 = CARTESIAN_POINT ( 'NONE',  ( 2.013977893037250194E-15, -7.064083524727700259E-17, 0.5768261942664603126 ) ) ;
#45 = APPROVAL ( #48, 'UNSPECIFIED' ) ;
#46 = PERSON_AND_ORGANIZATION_ROLE ( 'classification_officer' ) ;
#47 = PERSON_AND_ORGANIZATION_ROLE ( 'creator' ) ;
#48 = APPROVAL_STATUS ( 'not_yet_approved' ) ;
#49 = COORDINATED_UNIVERSAL_TIME_OFFSET ( 1, 0, .AHEAD. ) ;
#50 = AXIS2_PLACEMENT_3D ( 'NONE', #109, #209, #126 ) ;
#51 = CIRCLE ( 'NONE', #122, 0.9999999999999993339 ) ;
#52 = CLOSED_SHELL ( 'NONE', ( #183, #20, #107, #70, #141 ) ) ;
#53 = CIRCLE ( 'NONE', #27, 0.9599999999999961897 ) ;
#54 = EDGE_LOOP ( 'NONE', ( #2 ) ) ;
#55 = ORIENTED_EDGE ( 'NONE', *, *, #169, .F. ) ;
#56 = CARTESIAN_POINT ( 'NONE',  ( 4.189777606611760026E-14, 0.9599999999999947464, 12.00000000000000000 ) ) ;
#57 = DIRECTION ( 'NONE',  ( -3.491481338843133355E-15, 1.224646799147353207E-16, -1.000000000000000000 ) ) ;
#58 = DIRECTION ( 'NONE',  ( 4.275831445896958607E-31, 1.000000000000000000, 1.224646799147352961E-16 ) ) ;
#59 = LOCAL_TIME ( 15, 48, 18.00000000000000000, #134 ) ;
#60 = DIRECTION ( 'NONE',  ( 0.0000000000000000000, 1.000000000000000000, 0.0000000000000000000 ) ) ;
#61 = CC_DESIGN_APPROVAL ( #204, ( #25 ) ) ;
#62 = DIRECTION ( 'NONE',  ( 3.491481338843133355E-15, -1.224646799147353207E-16, 1.000000000000000000 ) ) ;
#63 = PERSON_AND_ORGANIZATION ( #176, #138 ) ;
#64 = CC_DESIGN_PERSON_AND_ORGANIZATION_ASSIGNMENT ( #63, #118, ( #97 ) ) ;
#65 = APPLICATION_PROTOCOL_DEFINITION ( 'international standard', 'config_control_design', 1994, #131 ) ;
#66 = DESIGN_CONTEXT ( 'detailed design', #191, 'design' ) ;
#67 = PERSON_AND_ORGANIZATION ( #176, #138 ) ;
#68 = MECHANICAL_CONTEXT ( 'NONE', #131, 'mechanical' ) ;
#69 = CIRCLE ( 'NONE', #199, 0.9599999999999961897 ) ;
#70 = ADVANCED_FACE ( 'NONE', ( #6, #166 ), #125, .T. ) ;
#71 = EDGE_LOOP ( 'NONE', ( #55 ) ) ;
#72 = AXIS2_PLACEMENT_3D ( 'NONE', #184, #95, #127 ) ;
#73 = AXIS2_PLACEMENT_3D ( 'NONE', #219, #130, #112 ) ;
#74 = ORIENTED_EDGE ( 'NONE', *, *, #135, .F. ) ;
#75 = VERTEX_POINT ( 'NONE', #23 ) ;
#76 = DIRECTION ( 'NONE',  ( -3.491481338843133355E-15, 1.224646799147353207E-16, -1.000000000000000000 ) ) ;
#77 = FACE_OUTER_BOUND ( 'NONE', #211, .T. ) ;
#78 = CARTESIAN_POINT ( 'NONE',  ( 1.326762908760390423E-13, 5.999039130647358587E-33, 38.00000000000000000 ) ) ;
#79 = CIRCLE ( 'NONE', #73, 0.9999999999999963363 ) ;
#80 = PLANE ( 'NONE',  #151 ) ;
#81 = CONICAL_SURFACE ( 'NONE', #111, 0.9599999999999935252, 1.029744258676649649 ) ;
#82 = CC_DESIGN_PERSON_AND_ORGANIZATION_ASSIGNMENT ( #67, #46, ( #25 ) ) ;
#83 = APPROVAL_DATE_TIME ( #185, #32 ) ;
#84 = LOCAL_TIME ( 15, 48, 18.00000000000000000, #121 ) ;
#85 = DATE_TIME_ROLE ( 'classification_date' ) ;
#86 = PERSON_AND_ORGANIZATION ( #176, #138 ) ;
#87 = CC_DESIGN_PERSON_AND_ORGANIZATION_ASSIGNMENT ( #186, #119, ( #43 ) ) ;
#88 = ORIENTED_EDGE ( 'NONE', *, *, #169, .T. ) ;
#89 = ORIENTED_EDGE ( 'NONE', *, *, #214, .T. ) ;
#90 = ORIENTED_EDGE ( 'NONE', *, *, #196, .T. ) ;
#91 = CC_DESIGN_PERSON_AND_ORGANIZATION_ASSIGNMENT ( #101, #205, ( #194 ) ) ;
#92 = CLOSED_SHELL ( 'NONE', ( #37, #123, #105 ) ) ;
#93 = AXIS2_PLACEMENT_3D ( 'NONE', #215, #76, #58 ) ;
#94 = EDGE_LOOP ( 'NONE', ( #158 ) ) ;
#95 = DIRECTION ( 'NONE',  ( -3.491481338843133355E-15, 1.224646799147353207E-16, -1.000000000000000000 ) ) ;
#96 = DIRECTION ( 'NONE',  ( -4.012354050806768803E-31, -1.000000000000000000, -1.129377263005741510E-16 ) ) ;
#97 = PRODUCT_DEFINITION ( 'UNKNOWN', '', #194, #66 ) ;
#98 = CARTESIAN_POINT ( 'NONE',  ( 1.326762908760390423E-13, -4.653657836759941941E-15, 38.00000000000000000 ) ) ;
#99 = DIRECTION ( 'NONE',  ( -3.491481338843133355E-15, 1.224646799147353207E-16, -1.000000000000000000 ) ) ;
#100 = DIRECTION ( 'NONE',  ( -4.275831445896958607E-31, -1.000000000000000000, -1.224646799147353207E-16 ) ) ;
#101 = PERSON_AND_ORGANIZATION ( #176, #138 ) ;
#102 = CALENDAR_DATE ( 2021, 7, 10 ) ;
#103 =( NAMED_UNIT ( * ) PLANE_ANGLE_UNIT ( ) SI_UNIT ( $, .RADIAN. ) );
#104 = DATE_TIME_ROLE ( 'creation_date' ) ;
#105 = ADVANCED_FACE ( 'NONE', ( #178 ), #80, .T. ) ;
#106 = VERTEX_POINT ( 'NONE', #120 ) ;
#107 = ADVANCED_FACE ( 'NONE', ( #116, #149 ), #165, .T. ) ;
#108 = EDGE_LOOP ( 'NONE', ( #89 ) ) ;
#109 = CARTESIAN_POINT ( 'NONE',  ( 4.213967298901980692E-14, -1.478060760886623512E-15, 12.06928203230275898 ) ) ;
#110 = CIRCLE ( 'NONE', #143, 0.7999999999999996003 ) ;
#111 = AXIS2_PLACEMENT_3D ( 'NONE', #44, #195, #96 ) ;
#112 = DIRECTION ( 'NONE',  ( 0.0000000000000000000, 1.000000000000000000, 0.0000000000000000000 ) ) ;
#113 = VERTEX_POINT ( 'NONE', #147 ) ;
#114 = CARTESIAN_POINT ( 'NONE',  ( 1.319779946082704535E-13, -4.629164900776995227E-15, 37.79999999999999716 ) ) ;
#115 = APPROVAL_PERSON_ORGANIZATION ( #86, #204, #136 ) ;
#116 = FACE_OUTER_BOUND ( 'NONE', #94, .T. ) ;
#117 = DIRECTION ( 'NONE',  ( -4.275831445896958607E-31, -1.000000000000000000, -1.224646799147353207E-16 ) ) ;
#118 = PERSON_AND_ORGANIZATION_ROLE ( 'creator' ) ;
#119 = PERSON_AND_ORGANIZATION_ROLE ( 'design_owner' ) ;
#120 = CARTESIAN_POINT ( 'NONE',  ( 4.213967298901980692E-14, 0.9999999999999947820, 12.06928203230275898 ) ) ;
#121 = COORDINATED_UNIVERSAL_TIME_OFFSET ( 1, 0, .AHEAD. ) ;
#122 = AXIS2_PLACEMENT_3D ( 'NONE', #114, #99, #150 ) ;
#123 = ADVANCED_FACE ( 'NONE', ( #77, #26 ), #8, .T. ) ;
#124 = ORIENTED_EDGE ( 'NONE', *, *, #135, .T. ) ;
#125 = CONICAL_SURFACE ( 'NONE', #33, 0.7999999999999996003, 0.7853981633974507215 ) ;
#126 = DIRECTION ( 'NONE',  ( 0.0000000000000000000, -1.000000000000000000, 0.0000000000000000000 ) ) ;
#127 = DIRECTION ( 'NONE',  ( 4.012354050806768803E-31, 1.000000000000000000, 1.129377263005741510E-16 ) ) ;
#128 = VERTEX_POINT ( 'NONE', #179 ) ;
#129 = DIRECTION ( 'NONE',  ( 0.0000000000000000000, 1.000000000000000000, 0.0000000000000000000 ) ) ;
#130 = DIRECTION ( 'NONE',  ( -3.491481338843133355E-15, 1.224646799147353207E-16, -1.000000000000000000 ) ) ;
#131 = APPLICATION_CONTEXT ( 'configuration controlled 3d designs of mechanical parts and assemblies' ) ;
#132 = FACE_OUTER_BOUND ( 'NONE', #39, .T. ) ;
#133 = APPROVAL_STATUS ( 'not_yet_approved' ) ;
#134 = COORDINATED_UNIVERSAL_TIME_OFFSET ( 1, 0, .AHEAD. ) ;
#135 = EDGE_CURVE ( 'NONE', #29, #29, #53, .T. ) ;
#136 = APPROVAL_ROLE ( '' ) ;
#137 = APPROVAL_STATUS ( 'not_yet_approved' ) ;
#138 = ORGANIZATION ( 'UNSPECIFIED', 'UNSPECIFIED', '' ) ;
#139 = CALENDAR_DATE ( 2021, 7, 10 ) ;
#140 = EDGE_LOOP ( 'NONE', ( #174 ) ) ;
#141 = ADVANCED_FACE ( 'NONE', ( #132 ), #197, .F. ) ;
#142 = ORIENTED_EDGE ( 'NONE', *, *, #145, .F. ) ;
#143 = AXIS2_PLACEMENT_3D ( 'NONE', #5, #42, #41 ) ;
#144 = EDGE_LOOP ( 'NONE', ( #36 ) ) ;
#145 = EDGE_CURVE ( 'NONE', #75, #75, #110, .T. ) ;
#146 = VERTEX_POINT ( 'NONE', #56 ) ;
#147 = CARTESIAN_POINT ( 'NONE',  ( 1.319779946082704535E-13, 0.9999999999999947820, 37.79999999999999716 ) ) ;
#148 = CC_DESIGN_PERSON_AND_ORGANIZATION_ASSIGNMENT ( #221, #47, ( #194 ) ) ;
#149 = FACE_OUTER_BOUND ( 'NONE', #159, .T. ) ;
#150 = DIRECTION ( 'NONE',  ( 0.0000000000000000000, 1.000000000000000000, 0.0000000000000000000 ) ) ;
#151 = AXIS2_PLACEMENT_3D ( 'NONE', #182, #62, #100 ) ;
#152 = CARTESIAN_POINT ( 'NONE',  ( 0.0000000000000000000, 0.0000000000000000000, 0.0000000000000000000 ) ) ;
#153 = MANIFOLD_SOLID_BREP ( 'Corps-Déplacer/Copier1[1]', #52 ) ;
#154 = AXIS2_PLACEMENT_3D ( 'NONE', #216, #40, #117 ) ;
#155 =( LENGTH_UNIT ( ) NAMED_UNIT ( * ) SI_UNIT ( .MILLI., .METRE. ) );
#156 = AXIS2_PLACEMENT_3D ( 'NONE', #152, #7, #200 ) ;
#157 = DATE_AND_TIME ( #171, #218 ) ;
#158 = ORIENTED_EDGE ( 'NONE', *, *, #214, .F. ) ;
#159 = EDGE_LOOP ( 'NONE', ( #88 ) ) ;
#160 = EDGE_CURVE ( 'NONE', #146, #146, #69, .T. ) ;
#161 = APPROVAL_PERSON_ORGANIZATION ( #206, #32, #172 ) ;
#162 = PLANE ( 'NONE',  #154 ) ;
#163 = DIRECTION ( 'NONE',  ( -3.491481338843133355E-15, 1.224646799147353207E-16, -1.000000000000000000 ) ) ;
#164 = DIRECTION ( 'NONE',  ( -3.491481338843133355E-15, 1.224646799147353207E-16, -1.000000000000000000 ) ) ;
#165 = CYLINDRICAL_SURFACE ( 'NONE', #156, 0.9999999999999978906 ) ;
#166 = FACE_BOUND ( 'NONE', #140, .T. ) ;
#167 = LOCAL_TIME ( 15, 48, 18.00000000000000000, #34 ) ;
#168 = CC_DESIGN_DATE_AND_TIME_ASSIGNMENT ( #222, #104, ( #97 ) ) ;
#169 = EDGE_CURVE ( 'NONE', #113, #113, #51, .T. ) ;
#170 = CC_DESIGN_DATE_AND_TIME_ASSIGNMENT ( #188, #85, ( #25 ) ) ;
#171 = CALENDAR_DATE ( 2021, 7, 10 ) ;
#172 = APPROVAL_ROLE ( '' ) ;
#173 = SECURITY_CLASSIFICATION_LEVEL ( 'unclassified' ) ;
#174 = ORIENTED_EDGE ( 'NONE', *, *, #145, .T. ) ;
#175 = SHAPE_DEFINITION_REPRESENTATION ( #181, #210 ) ;
#176 = PERSON ( 'UNSPECIFIED', 'UNSPECIFIED', 'UNSPECIFIED', ('UNSPECIFIED'), ('UNSPECIFIED'), ('UNSPECIFIED') ) ;
#177 = CARTESIAN_POINT ( 'NONE',  ( 4.189777606611760026E-14, 0.9599999999999947464, 12.00000000000000000 ) ) ;
#178 = FACE_OUTER_BOUND ( 'NONE', #21, .T. ) ;
#179 = CARTESIAN_POINT ( 'NONE',  ( 2.013977893037250588E-15, 0.9599999999999934142, 0.5768261942664604236 ) ) ;
#180 = APPROVAL_PERSON_ORGANIZATION ( #13, #45, #12 ) ;
#181 = PRODUCT_DEFINITION_SHAPE ( 'NONE', 'NONE',  #97 ) ;
#182 = CARTESIAN_POINT ( 'NONE',  ( 4.189777606611760026E-14, 7.198846956776866432E-33, 12.00000000000000000 ) ) ;
#183 = ADVANCED_FACE ( 'NONE', ( #212 ), #162, .F. ) ;
#184 = CARTESIAN_POINT ( 'NONE',  ( 2.013977893037250194E-15, -7.064083524727700259E-17, 0.5768261942664603126 ) ) ;
#185 = DATE_AND_TIME ( #202, #59 ) ;
#186 = PERSON_AND_ORGANIZATION ( #176, #138 ) ;
#187 = DIRECTION ( 'NONE',  ( 0.0000000000000000000, 0.0000000000000000000, 1.000000000000000000 ) ) ;
#188 = DATE_AND_TIME ( #17, #84 ) ;
#189 =( GEOMETRIC_REPRESENTATION_CONTEXT ( 3 ) GLOBAL_UNCERTAINTY_ASSIGNED_CONTEXT ( ( #15 ) ) GLOBAL_UNIT_ASSIGNED_CONTEXT ( ( #155, #103, #11 ) ) REPRESENTATION_CONTEXT ( 'NONE', 'WORKASPACE' ) );
#190 = APPROVAL_DATE_TIME ( #157, #45 ) ;
#191 = APPLICATION_CONTEXT ( 'configuration controlled 3d designs of mechanical parts and assemblies' ) ;
#192 = EDGE_LOOP ( 'NONE', ( #90 ) ) ;
#193 = PRODUCT_RELATED_PRODUCT_CATEGORY ( 'detail', '', ( #43 ) ) ;
#194 = PRODUCT_DEFINITION_FORMATION_WITH_SPECIFIED_SOURCE ( 'ANY', '', #43, .NOT_KNOWN. ) ;
#195 = DIRECTION ( 'NONE',  ( 3.491481338843133355E-15, -1.224646799147353207E-16, 1.000000000000000000 ) ) ;
#196 = EDGE_CURVE ( 'NONE', #128, #128, #198, .T. ) ;
#197 = PLANE ( 'NONE',  #16 ) ;
#198 = CIRCLE ( 'NONE', #72, 0.9599999999999935252 ) ;
#199 = AXIS2_PLACEMENT_3D ( 'NONE', #28, #213, #60 ) ;
#200 = DIRECTION ( 'NONE',  ( 4.275831445896958607E-31, 1.000000000000000000, 1.224646799147352961E-16 ) ) ;
#201 = DIRECTION ( 'NONE',  ( 4.275831445896958607E-31, 1.000000000000000000, 1.224646799147353207E-16 ) ) ;
#202 = CALENDAR_DATE ( 2021, 7, 10 ) ;
#203 = APPLICATION_PROTOCOL_DEFINITION ( 'international standard', 'config_control_design', 1994, #191 ) ;
#204 = APPROVAL ( #137, 'UNSPECIFIED' ) ;
#205 = PERSON_AND_ORGANIZATION_ROLE ( 'design_supplier' ) ;
#206 = PERSON_AND_ORGANIZATION ( #176, #138 ) ;
#207 = CONICAL_SURFACE ( 'NONE', #50, 0.9999999999999963363, 0.5235987755982814962 ) ;
#208 = FACE_OUTER_BOUND ( 'NONE', #108, .T. ) ;
#209 = DIRECTION ( 'NONE',  ( 3.491481338843133355E-15, -1.224646799147353207E-16, 1.000000000000000000 ) ) ;
#210 = ADVANCED_BREP_SHAPE_REPRESENTATION ( '48963', ( #153, #223, #10 ), #189 ) ;
#211 = EDGE_LOOP ( 'NONE', ( #18 ) ) ;
#212 = FACE_OUTER_BOUND ( 'NONE', #54, .T. ) ;
#213 = DIRECTION ( 'NONE',  ( -3.491481338843133355E-15, 1.224646799147353207E-16, -1.000000000000000000 ) ) ;
#214 = EDGE_CURVE ( 'NONE', #106, #106, #79, .T. ) ;
#215 = CARTESIAN_POINT ( 'NONE',  ( 0.0000000000000000000, 0.0000000000000000000, 0.0000000000000000000 ) ) ;
#216 = CARTESIAN_POINT ( 'NONE',  ( 4.189777606611760026E-14, 7.198846956776866432E-33, 12.00000000000000000 ) ) ;
#217 = CC_DESIGN_APPROVAL ( #45, ( #97 ) ) ;
#218 = LOCAL_TIME ( 15, 48, 18.00000000000000000, #31 ) ;
#219 = CARTESIAN_POINT ( 'NONE',  ( 4.213967298901980692E-14, -1.478060760886623512E-15, 12.06928203230275898 ) ) ;
#220 = CARTESIAN_POINT ( 'NONE',  ( 0.0000000000000000000, 0.0000000000000000000, 0.0000000000000000000 ) ) ;
#221 = PERSON_AND_ORGANIZATION ( #176, #138 ) ;
#222 = DATE_AND_TIME ( #102, #167 ) ;
#223 = MANIFOLD_SOLID_BREP ( 'Corps-Déplacer/Copier1[2]', #92 ) ;
ENDSEC;
END-ISO-10303-21;
