ISO-10303-21;
HEADER;
FILE_DESCRIPTION (( 'STEP AP203' ),
    '1' );
FILE_NAME ('48857.step',
    '2021-11-01T09:16:37',
    ( '' ),
    ( '' ),
    'SwSTEP 2.0',
    'SolidWorks 2019',
    '' );
FILE_SCHEMA (( 'CONFIG_CONTROL_DESIGN' ));
ENDSEC;

DATA;
#1 = CARTESIAN_POINT ( 'NONE',  ( 2.094888803305880013E-14, 1.124819836996384721E-32, 6.000000000000000000 ) ) ;
#2 = VERTEX_POINT ( 'NONE', #77 ) ;
#3 = CARTESIAN_POINT ( 'NONE',  ( 1.316288464743861212E-13, 1.499999999999989120, 37.69999999999999574 ) ) ;
#4 = APPLICATION_PROTOCOL_DEFINITION ( 'international standard', 'config_control_design', 1994, #8 ) ;
#5 = DIRECTION ( 'NONE',  ( 4.275831445896958607E-31, 1.000000000000000000, 1.224646799147353207E-16 ) ) ;
#6 = CC_DESIGN_PERSON_AND_ORGANIZATION_ASSIGNMENT ( #117, #7, ( #198 ) ) ;
#7 = PERSON_AND_ORGANIZATION_ROLE ( 'design_supplier' ) ;
#8 = APPLICATION_CONTEXT ( 'configuration controlled 3d designs of mechanical parts and assemblies' ) ;
#9 = LOCAL_TIME ( 10, 16, 37.00000000000000000, #45 ) ;
#10 = ORIENTED_EDGE ( 'NONE', *, *, #214, .T. ) ;
#11 = AXIS2_PLACEMENT_3D ( 'NONE', #206, #59, #43 ) ;
#12 = DIRECTION ( 'NONE',  ( 0.0000000000000000000, 0.0000000000000000000, 1.000000000000000000 ) ) ;
#13 = APPROVAL_ROLE ( '' ) ;
#14 = DIRECTION ( 'NONE',  ( 4.275831445896958607E-31, 1.000000000000000000, 1.224646799147353207E-16 ) ) ;
#15 = ADVANCED_FACE ( 'NONE', ( #225 ), #128, .T. ) ;
#16 = FACE_OUTER_BOUND ( 'NONE', #33, .T. ) ;
#17 = AXIS2_PLACEMENT_3D ( 'NONE', #20, #168, #14 ) ;
#18 = DATE_AND_TIME ( #153, #9 ) ;
#19 = PERSON_AND_ORGANIZATION_ROLE ( 'design_owner' ) ;
#20 = CARTESIAN_POINT ( 'NONE',  ( 1.326762908760390423E-13, 8.998558695971030697E-33, 38.00000000000000000 ) ) ;
#21 = ADVANCED_FACE ( 'NONE', ( #165, #110 ), #31, .F. ) ;
#22 = EDGE_LOOP ( 'NONE', ( #218 ) ) ;
#23 = ORGANIZATION ( 'UNSPECIFIED', 'UNSPECIFIED', '' ) ;
#24 = CARTESIAN_POINT ( 'NONE',  ( 3.359555968535300304E-14, -1.499999999999992895, 9.622150721986830746 ) ) ;
#25 = CARTESIAN_POINT ( 'NONE',  ( -3.462302365063690314E-30, 1.209053490667920663E-31, -9.916428097567574654E-16 ) ) ;
#26 = CARTESIAN_POINT ( 'NONE',  ( 1.326762908760390423E-13, 1.199999999999989297, 38.00000000000000000 ) ) ;
#27 = CIRCLE ( 'NONE', #187, 0.5999999999999998668 ) ;
#28 = APPROVAL_DATE_TIME ( #63, #47 ) ;
#29 = FACE_OUTER_BOUND ( 'NONE', #161, .T. ) ;
#30 = PERSON_AND_ORGANIZATION ( #179, #23 ) ;
#31 = TOROIDAL_SURFACE ( 'NONE', #154, 2.600000000000000533, 2.000000000000000000 ) ;
#32 = ORIENTED_EDGE ( 'NONE', *, *, #195, .F. ) ;
#33 = EDGE_LOOP ( 'NONE', ( #32 ) ) ;
#34 = CC_DESIGN_SECURITY_CLASSIFICATION ( #175, ( #198 ) ) ;
#35 = AXIS2_PLACEMENT_3D ( 'NONE', #112, #157, #212 ) ;
#36 = DIRECTION ( 'NONE',  ( 3.491481338843133355E-15, -1.224646799147353207E-16, 1.000000000000000000 ) ) ;
#37 = DIRECTION ( 'NONE',  ( 3.491481338843133355E-15, -1.219242935835426903E-16, 1.000000000000000000 ) ) ;
#38 = CYLINDRICAL_SURFACE ( 'NONE', #70, 1.499999999999991784 ) ;
#39 = EDGE_LOOP ( 'NONE', ( #67 ) ) ;
#40 = FACE_BOUND ( 'NONE', #163, .T. ) ;
#41 = FACE_OUTER_BOUND ( 'NONE', #39, .T. ) ;
#42 = UNCERTAINTY_MEASURE_WITH_UNIT (LENGTH_MEASURE( 1.000000000000000082E-05 ), #140, 'distance_accuracy_value', 'NONE');
#43 = DIRECTION ( 'NONE',  ( 0.0000000000000000000, -1.000000000000000000, 0.0000000000000000000 ) ) ;
#44 = DIRECTION ( 'NONE',  ( 3.491481338843133355E-15, -1.219242935835426903E-16, 1.000000000000000000 ) ) ;
#45 = COORDINATED_UNIVERSAL_TIME_OFFSET ( 1, 0, .AHEAD. ) ;
#46 = DIRECTION ( 'NONE',  ( 3.491481338843133355E-15, -1.224646799147353207E-16, 1.000000000000000000 ) ) ;
#47 = APPROVAL ( #234, 'UNSPECIFIED' ) ;
#48 = AXIS2_PLACEMENT_3D ( 'NONE', #52, #12, #124 ) ;
#49 = CALENDAR_DATE ( 2021, 1, 11 ) ;
#50 = APPLICATION_CONTEXT ( 'configuration controlled 3d designs of mechanical parts and assemblies' ) ;
#51 = DIRECTION ( 'NONE',  ( 0.0000000000000000000, -1.000000000000000000, 0.0000000000000000000 ) ) ;
#52 = CARTESIAN_POINT ( 'NONE',  ( 0.0000000000000000000, 0.0000000000000000000, 0.0000000000000000000 ) ) ;
#53 = FACE_OUTER_BOUND ( 'NONE', #106, .T. ) ;
#54 = ORIENTED_EDGE ( 'NONE', *, *, #195, .T. ) ;
#55 = CLOSED_SHELL ( 'NONE', ( #148, #111, #86, #116, #21, #199 ) ) ;
#56 = EDGE_LOOP ( 'NONE', ( #88 ) ) ;
#57 = APPROVAL_DATE_TIME ( #74, #120 ) ;
#58 = DESIGN_CONTEXT ( 'detailed design', #50, 'design' ) ;
#59 = DIRECTION ( 'NONE',  ( 3.491481338843133355E-15, -1.219242935835426903E-16, 1.000000000000000000 ) ) ;
#60 = DIRECTION ( 'NONE',  ( 0.0000000000000000000, 1.000000000000000000, 0.0000000000000000000 ) ) ;
#61 = COORDINATED_UNIVERSAL_TIME_OFFSET ( 1, 0, .AHEAD. ) ;
#62 = PERSON_AND_ORGANIZATION ( #179, #23 ) ;
#63 = DATE_AND_TIME ( #221, #200 ) ;
#64 = APPROVAL_PERSON_ORGANIZATION ( #162, #47, #13 ) ;
#65 = CC_DESIGN_PERSON_AND_ORGANIZATION_ASSIGNMENT ( #30, #83, ( #151 ) ) ;
#66 = CIRCLE ( 'NONE', #137, 0.6000000000000001998 ) ;
#67 = ORIENTED_EDGE ( 'NONE', *, *, #214, .F. ) ;
#68 = EDGE_CURVE ( 'NONE', #172, #172, #66, .T. ) ;
#69 = COORDINATED_UNIVERSAL_TIME_OFFSET ( 1, 0, .AHEAD. ) ;
#70 = AXIS2_PLACEMENT_3D ( 'NONE', #189, #96, #5 ) ;
#71 = PRODUCT_RELATED_PRODUCT_CATEGORY ( 'detail', '', ( #142 ) ) ;
#72 = CARTESIAN_POINT ( 'NONE',  ( -1.282754905350004587E-30, 4.499298539707956128E-32, -3.673956068672651857E-16 ) ) ;
#73 = CC_DESIGN_APPROVAL ( #233, ( #198 ) ) ;
#74 = DATE_AND_TIME ( #211, #222 ) ;
#75 = DIRECTION ( 'NONE',  ( -4.256963957985706261E-31, -1.000000000000000000, -1.219242935835426903E-16 ) ) ;
#76 = CARTESIAN_POINT ( 'NONE',  ( 1.326762908760390423E-13, -4.653657836759941941E-15, 38.00000000000000000 ) ) ;
#77 = CARTESIAN_POINT ( 'NONE',  ( -3.717720202542832830E-30, -0.5999999999999998668, -1.064797385906883119E-15 ) ) ;
#78 = CONICAL_SURFACE ( 'NONE', #215, 1.199999999999993738, 0.7853981633974453924 ) ;
#79 = DIRECTION ( 'NONE',  ( 0.0000000000000000000, -1.000000000000000000, 0.0000000000000000000 ) ) ;
#80 = PERSON_AND_ORGANIZATION ( #179, #23 ) ;
#81 = APPROVAL_ROLE ( '' ) ;
#82 = DIRECTION ( 'NONE',  ( 0.0000000000000000000, 1.000000000000000000, 0.0000000000000000000 ) ) ;
#83 = PERSON_AND_ORGANIZATION_ROLE ( 'creator' ) ;
#84 = CC_DESIGN_APPROVAL ( #47, ( #151 ) ) ;
#85 = EDGE_LOOP ( 'NONE', ( #235 ) ) ;
#86 = ADVANCED_FACE ( 'NONE', ( #204 ), #130, .F. ) ;
#87 =( NAMED_UNIT ( * ) SI_UNIT ( $, .STERADIAN. ) SOLID_ANGLE_UNIT ( ) );
#88 = ORIENTED_EDGE ( 'NONE', *, *, #68, .F. ) ;
#89 = CC_DESIGN_APPROVAL ( #120, ( #175 ) ) ;
#90 = EDGE_LOOP ( 'NONE', ( #91 ) ) ;
#91 = ORIENTED_EDGE ( 'NONE', *, *, #164, .T. ) ;
#92 = DIRECTION ( 'NONE',  ( -4.275831445896958607E-31, -1.000000000000000000, -1.224646799147353207E-16 ) ) ;
#93 = CIRCLE ( 'NONE', #11, 0.6681483474218598007 ) ;
#94 = CC_DESIGN_DATE_AND_TIME_ASSIGNMENT ( #173, #100, ( #151 ) ) ;
#95 = APPROVAL_PERSON_ORGANIZATION ( #191, #233, #133 ) ;
#96 = DIRECTION ( 'NONE',  ( -3.491481338843133355E-15, 1.224646799147353207E-16, -1.000000000000000000 ) ) ;
#97 = DIRECTION ( 'NONE',  ( -4.275831445896958607E-31, -1.000000000000000000, -1.224646799147353207E-16 ) ) ;
#98 = AXIS2_PLACEMENT_3D ( 'NONE', #240, #36, #92 ) ;
#99 = DIRECTION ( 'NONE',  ( -3.491481338843133355E-15, 1.224646799147353207E-16, -1.000000000000000000 ) ) ;
#100 = DATE_TIME_ROLE ( 'creation_date' ) ;
#101 = ADVANCED_FACE ( 'NONE', ( #16 ), #242, .F. ) ;
#102 = CIRCLE ( 'NONE', #238, 1.199999999999993738 ) ;
#103 = VERTEX_POINT ( 'NONE', #138 ) ;
#104 = LOCAL_TIME ( 10, 16, 37.00000000000000000, #139 ) ;
#105 = APPLICATION_PROTOCOL_DEFINITION ( 'international standard', 'config_control_design', 1994, #50 ) ;
#106 = EDGE_LOOP ( 'NONE', ( #177 ) ) ;
#107 = ORIENTED_EDGE ( 'NONE', *, *, #223, .T. ) ;
#108 = DIRECTION ( 'NONE',  ( 0.0000000000000000000, -1.000000000000000000, 0.0000000000000000000 ) ) ;
#109 = CONICAL_SURFACE ( 'NONE', #160, 2.499999999999992895, 0.2617993877991429130 ) ;
#110 = FACE_OUTER_BOUND ( 'NONE', #85, .T. ) ;
#111 = ADVANCED_FACE ( 'NONE', ( #53, #40 ), #78, .T. ) ;
#112 = CARTESIAN_POINT ( 'NONE',  ( 3.359555968535300304E-14, -1.173173929532619608E-15, 9.622150721986830746 ) ) ;
#113 = VERTEX_POINT ( 'NONE', #3 ) ;
#114 = COORDINATED_UNIVERSAL_TIME_OFFSET ( 1, 0, .AHEAD. ) ;
#115 = FACE_OUTER_BOUND ( 'NONE', #56, .T. ) ;
#116 = ADVANCED_FACE ( 'NONE', ( #125, #224 ), #109, .T. ) ;
#117 = PERSON_AND_ORGANIZATION ( #179, #23 ) ;
#118 = PLANE ( 'NONE',  #146 ) ;
#119 = AXIS2_PLACEMENT_3D ( 'NONE', #226, #208, #79 ) ;
#120 = APPROVAL ( #156, 'UNSPECIFIED' ) ;
#121 = ORIENTED_EDGE ( 'NONE', *, *, #243, .T. ) ;
#122 = MECHANICAL_CONTEXT ( 'NONE', #8, 'mechanical' ) ;
#123 = EDGE_LOOP ( 'NONE', ( #181 ) ) ;
#124 = DIRECTION ( 'NONE',  ( 1.000000000000000000, 0.0000000000000000000, 0.0000000000000000000 ) ) ;
#125 = FACE_BOUND ( 'NONE', #180, .T. ) ;
#126 = DIRECTION ( 'NONE',  ( 3.491481338843133355E-15, -1.224646799147353207E-16, 1.000000000000000000 ) ) ;
#127 = DIRECTION ( 'NONE',  ( 3.491481338843133355E-15, -1.219242935835426903E-16, 1.000000000000000000 ) ) ;
#128 = PLANE ( 'NONE',  #98 ) ;
#129 = AXIS2_PLACEMENT_3D ( 'NONE', #193, #99, #82 ) ;
#130 = PLANE ( 'NONE',  #17 ) ;
#131 = CARTESIAN_POINT ( 'NONE',  ( 0.0000000000000000000, 0.0000000000000000000, 0.0000000000000000000 ) ) ;
#132 = APPROVAL_DATE_TIME ( #18, #233 ) ;
#133 = APPROVAL_ROLE ( '' ) ;
#134 = CARTESIAN_POINT ( 'NONE',  ( 2.094888803305880013E-14, -0.6000000000000009770, 6.000000000000000000 ) ) ;
#135 = PERSON_AND_ORGANIZATION_ROLE ( 'creator' ) ;
#136 =( GEOMETRIC_REPRESENTATION_CONTEXT ( 3 ) GLOBAL_UNCERTAINTY_ASSIGNED_CONTEXT ( ( #42 ) ) GLOBAL_UNIT_ASSIGNED_CONTEXT ( ( #140, #217, #87 ) ) REPRESENTATION_CONTEXT ( 'NONE', 'WORKASPACE' ) );
#137 = AXIS2_PLACEMENT_3D ( 'NONE', #185, #127, #51 ) ;
#138 = CARTESIAN_POINT ( 'NONE',  ( 2.275621176528404862E-14, -0.6681483474218604668, 6.517638090205026380 ) ) ;
#139 = COORDINATED_UNIVERSAL_TIME_OFFSET ( 1, 0, .AHEAD. ) ;
#140 =( LENGTH_UNIT ( ) NAMED_UNIT ( * ) SI_UNIT ( .MILLI., .METRE. ) );
#141 = CC_DESIGN_PERSON_AND_ORGANIZATION_ASSIGNMENT ( #184, #19, ( #142 ) ) ;
#142 = PRODUCT ( '48857', '48857', '', ( #122 ) ) ;
#143 = EDGE_LOOP ( 'NONE', ( #231 ) ) ;
#144 = ORIENTED_EDGE ( 'NONE', *, *, #68, .T. ) ;
#145 = EDGE_LOOP ( 'NONE', ( #144 ) ) ;
#146 = AXIS2_PLACEMENT_3D ( 'NONE', #1, #46, #97 ) ;
#147 = DIRECTION ( 'NONE',  ( -3.491481338843133355E-15, 1.224646799147353207E-16, -1.000000000000000000 ) ) ;
#148 = ADVANCED_FACE ( 'NONE', ( #183, #202 ), #38, .T. ) ;
#149 = DIRECTION ( 'NONE',  ( 3.491481338843133355E-15, -1.219242935835426903E-16, 1.000000000000000000 ) ) ;
#150 = CYLINDRICAL_SURFACE ( 'NONE', #196, 0.6000000000000000888 ) ;
#151 = PRODUCT_DEFINITION ( 'UNKNOWN', '', #198, #58 ) ;
#152 = VERTEX_POINT ( 'NONE', #134 ) ;
#153 = CALENDAR_DATE ( 2021, 1, 11 ) ;
#154 = AXIS2_PLACEMENT_3D ( 'NONE', #220, #166, #182 ) ;
#155 = CARTESIAN_POINT ( 'NONE',  ( 2.094888803305880013E-14, -0.6000000000000009770, 6.000000000000000000 ) ) ;
#156 = APPROVAL_STATUS ( 'not_yet_approved' ) ;
#157 = DIRECTION ( 'NONE',  ( -3.491481338843133355E-15, 1.219242935835426903E-16, -1.000000000000000000 ) ) ;
#158 = PERSON_AND_ORGANIZATION_ROLE ( 'classification_officer' ) ;
#159 = APPROVAL_PERSON_ORGANIZATION ( #62, #120, #81 ) ;
#160 = AXIS2_PLACEMENT_3D ( 'NONE', #236, #37, #108 ) ;
#161 = EDGE_LOOP ( 'NONE', ( #54 ) ) ;
#162 = PERSON_AND_ORGANIZATION ( #179, #23 ) ;
#163 = EDGE_LOOP ( 'NONE', ( #107 ) ) ;
#164 = EDGE_CURVE ( 'NONE', #113, #113, #203, .T. ) ;
#165 = FACE_OUTER_BOUND ( 'NONE', #167, .T. ) ;
#166 = DIRECTION ( 'NONE',  ( 3.491481338843133355E-15, -1.219242935835426903E-16, 1.000000000000000000 ) ) ;
#167 = EDGE_LOOP ( 'NONE', ( #10 ) ) ;
#168 = DIRECTION ( 'NONE',  ( -3.491481338843133355E-15, 1.224646799147353207E-16, -1.000000000000000000 ) ) ;
#169 = ADVANCED_BREP_SHAPE_REPRESENTATION ( '48857', ( #219, #216, #48 ), #136 ) ;
#170 = VERTEX_POINT ( 'NONE', #24 ) ;
#171 = APPROVAL_STATUS ( 'not_yet_approved' ) ;
#172 = VERTEX_POINT ( 'NONE', #155 ) ;
#173 = DATE_AND_TIME ( #49, #241 ) ;
#174 = CLOSED_SHELL ( 'NONE', ( #15, #237, #101 ) ) ;
#175 = SECURITY_CLASSIFICATION ( '', '', #210 ) ;
#176 = DIRECTION ( 'NONE',  ( -4.256963957985708889E-31, -1.000000000000000000, -1.219242935835426656E-16 ) ) ;
#177 = ORIENTED_EDGE ( 'NONE', *, *, #164, .F. ) ;
#178 = CC_DESIGN_PERSON_AND_ORGANIZATION_ASSIGNMENT ( #80, #135, ( #198 ) ) ;
#179 = PERSON ( 'UNSPECIFIED', 'UNSPECIFIED', 'UNSPECIFIED', ('UNSPECIFIED'), ('UNSPECIFIED'), ('UNSPECIFIED') ) ;
#180 = EDGE_LOOP ( 'NONE', ( #121 ) ) ;
#181 = ORIENTED_EDGE ( 'NONE', *, *, #190, .T. ) ;
#182 = DIRECTION ( 'NONE',  ( -4.372421759739010953E-31, -1.000000000000000000, -1.219242935835426903E-16 ) ) ;
#183 = FACE_OUTER_BOUND ( 'NONE', #90, .T. ) ;
#184 = PERSON_AND_ORGANIZATION ( #179, #23 ) ;
#185 = CARTESIAN_POINT ( 'NONE',  ( 2.094888803305880013E-14, -7.315457615012561416E-16, 6.000000000000000000 ) ) ;
#186 = CARTESIAN_POINT ( 'NONE',  ( 1.326762908760390423E-13, -4.653657836759941941E-15, 38.00000000000000000 ) ) ;
#187 = AXIS2_PLACEMENT_3D ( 'NONE', #25, #44, #75 ) ;
#188 = CALENDAR_DATE ( 2021, 1, 11 ) ;
#189 = CARTESIAN_POINT ( 'NONE',  ( 0.0000000000000000000, 0.0000000000000000000, 0.0000000000000000000 ) ) ;
#190 = EDGE_CURVE ( 'NONE', #170, #170, #213, .T. ) ;
#191 = PERSON_AND_ORGANIZATION ( #179, #23 ) ;
#192 = SHAPE_DEFINITION_REPRESENTATION ( #197, #169 ) ;
#193 = CARTESIAN_POINT ( 'NONE',  ( 1.316288464743861212E-13, -4.616918432785521081E-15, 37.69999999999999574 ) ) ;
#194 = VERTEX_POINT ( 'NONE', #26 ) ;
#195 = EDGE_CURVE ( 'NONE', #2, #2, #27, .T. ) ;
#196 = AXIS2_PLACEMENT_3D ( 'NONE', #131, #149, #176 ) ;
#197 = PRODUCT_DEFINITION_SHAPE ( 'NONE', 'NONE',  #151 ) ;
#198 = PRODUCT_DEFINITION_FORMATION_WITH_SPECIFIED_SOURCE ( 'ANY', '', #142, .NOT_KNOWN. ) ;
#199 = ADVANCED_FACE ( 'NONE', ( #41 ), #118, .F. ) ;
#200 = LOCAL_TIME ( 10, 16, 37.00000000000000000, #69 ) ;
#201 = DIRECTION ( 'NONE',  ( -4.275831445896958607E-31, -1.000000000000000000, -1.224646799147353207E-16 ) ) ;
#202 = FACE_OUTER_BOUND ( 'NONE', #143, .T. ) ;
#203 = CIRCLE ( 'NONE', #129, 1.499999999999993783 ) ;
#204 = FACE_OUTER_BOUND ( 'NONE', #22, .T. ) ;
#205 = CC_DESIGN_PERSON_AND_ORGANIZATION_ASSIGNMENT ( #230, #158, ( #175 ) ) ;
#206 = CARTESIAN_POINT ( 'NONE',  ( 2.275621176528404862E-14, -7.946584199814381695E-16, 6.517638090205026380 ) ) ;
#207 = CIRCLE ( 'NONE', #119, 0.6000000000000001998 ) ;
#208 = DIRECTION ( 'NONE',  ( 3.491481338843133355E-15, -1.219242935835426903E-16, 1.000000000000000000 ) ) ;
#209 = DATE_AND_TIME ( #188, #104 ) ;
#210 = SECURITY_CLASSIFICATION_LEVEL ( 'unclassified' ) ;
#211 = CALENDAR_DATE ( 2021, 1, 11 ) ;
#212 = DIRECTION ( 'NONE',  ( 0.0000000000000000000, -1.000000000000000000, 0.0000000000000000000 ) ) ;
#213 = CIRCLE ( 'NONE', #35, 1.499999999999991784 ) ;
#214 = EDGE_CURVE ( 'NONE', #152, #152, #207, .T. ) ;
#215 = AXIS2_PLACEMENT_3D ( 'NONE', #186, #147, #239 ) ;
#216 = MANIFOLD_SOLID_BREP ( 'Corps-Déplacer/Copier1[2]', #174 ) ;
#217 =( NAMED_UNIT ( * ) PLANE_ANGLE_UNIT ( ) SI_UNIT ( $, .RADIAN. ) );
#218 = ORIENTED_EDGE ( 'NONE', *, *, #223, .F. ) ;
#219 = MANIFOLD_SOLID_BREP ( 'Corps-Déplacer/Copier1[1]', #55 ) ;
#220 = CARTESIAN_POINT ( 'NONE',  ( 2.094888803305880013E-14, -8.673617379884035472E-16, 6.000000000000000000 ) ) ;
#221 = CALENDAR_DATE ( 2021, 1, 11 ) ;
#222 = LOCAL_TIME ( 10, 16, 37.00000000000000000, #114 ) ;
#223 = EDGE_CURVE ( 'NONE', #194, #194, #102, .T. ) ;
#224 = FACE_OUTER_BOUND ( 'NONE', #123, .T. ) ;
#225 = FACE_OUTER_BOUND ( 'NONE', #145, .T. ) ;
#226 = CARTESIAN_POINT ( 'NONE',  ( 2.094888803305880013E-14, -7.315457615012561416E-16, 6.000000000000000000 ) ) ;
#227 = DATE_TIME_ROLE ( 'classification_date' ) ;
#228 = DIRECTION ( 'NONE',  ( -3.491481338843133355E-15, 1.224646799147353207E-16, -1.000000000000000000 ) ) ;
#229 = CC_DESIGN_DATE_AND_TIME_ASSIGNMENT ( #209, #227, ( #175 ) ) ;
#230 = PERSON_AND_ORGANIZATION ( #179, #23 ) ;
#231 = ORIENTED_EDGE ( 'NONE', *, *, #190, .F. ) ;
#232 = AXIS2_PLACEMENT_3D ( 'NONE', #72, #126, #201 ) ;
#233 = APPROVAL ( #171, 'UNSPECIFIED' ) ;
#234 = APPROVAL_STATUS ( 'not_yet_approved' ) ;
#235 = ORIENTED_EDGE ( 'NONE', *, *, #243, .F. ) ;
#236 = CARTESIAN_POINT ( 'NONE',  ( 4.662594543559453715E-14, -1.628201587863357242E-15, 13.35420152955580875 ) ) ;
#237 = ADVANCED_FACE ( 'NONE', ( #29, #115 ), #150, .T. ) ;
#238 = AXIS2_PLACEMENT_3D ( 'NONE', #76, #228, #60 ) ;
#239 = DIRECTION ( 'NONE',  ( 0.0000000000000000000, 1.000000000000000000, 0.0000000000000000000 ) ) ;
#240 = CARTESIAN_POINT ( 'NONE',  ( 2.094888803305880013E-14, 1.124819836996384721E-32, 6.000000000000000000 ) ) ;
#241 = LOCAL_TIME ( 10, 16, 37.00000000000000000, #61 ) ;
#242 = PLANE ( 'NONE',  #232 ) ;
#243 = EDGE_CURVE ( 'NONE', #103, #103, #93, .T. ) ;
ENDSEC;
END-ISO-10303-21;
