ISO-10303-21;
HEADER;
FILE_DESCRIPTION (( 'STEP AP203' ),
    '1' );
FILE_NAME ('48856.step',
    '2021-11-01T09:16:36',
    ( '' ),
    ( '' ),
    'SwSTEP 2.0',
    'SolidWorks 2019',
    '' );
FILE_SCHEMA (( 'CONFIG_CONTROL_DESIGN' ));
ENDSEC;

DATA;
#1 = VERTEX_POINT ( 'NONE', #74 ) ;
#2 = APPLICATION_CONTEXT ( 'configuration controlled 3d designs of mechanical parts and assemblies' ) ;
#3 = AXIS2_PLACEMENT_3D ( 'NONE', #43, #187, #171 ) ;
#4 = PERSON_AND_ORGANIZATION ( #208, #140 ) ;
#5 = APPLICATION_PROTOCOL_DEFINITION ( 'international standard', 'config_control_design', 1994, #175 ) ;
#6 = ADVANCED_FACE ( 'NONE', ( #8, #86 ), #195, .F. ) ;
#7 = CYLINDRICAL_SURFACE ( 'NONE', #145, 1.499999999999991784 ) ;
#8 = FACE_OUTER_BOUND ( 'NONE', #197, .T. ) ;
#9 = DIRECTION ( 'NONE',  ( 0.0000000000000000000, -1.000000000000000000, 0.0000000000000000000 ) ) ;
#10 = AXIS2_PLACEMENT_3D ( 'NONE', #18, #238, #122 ) ;
#11 = PERSON_AND_ORGANIZATION_ROLE ( 'classification_officer' ) ;
#12 = EDGE_LOOP ( 'NONE', ( #196 ) ) ;
#13 = CARTESIAN_POINT ( 'NONE',  ( 3.031289553962453849E-14, -1.499999999999992895, 8.681958343122179400 ) ) ;
#14 = FACE_OUTER_BOUND ( 'NONE', #193, .T. ) ;
#15 = AXIS2_PLACEMENT_3D ( 'NONE', #143, #147, #221 ) ;
#16 = CALENDAR_DATE ( 2021, 1, 11 ) ;
#17 = DIRECTION ( 'NONE',  ( 0.0000000000000000000, 1.000000000000000000, 0.0000000000000000000 ) ) ;
#18 = CARTESIAN_POINT ( 'NONE',  ( 1.326762908760390423E-13, 8.998558695971030697E-33, 38.00000000000000000 ) ) ;
#19 = EDGE_CURVE ( 'NONE', #126, #126, #233, .T. ) ;
#20 = LOCAL_TIME ( 10, 16, 36.00000000000000000, #215 ) ;
#21 = APPLICATION_PROTOCOL_DEFINITION ( 'international standard', 'config_control_design', 1994, #2 ) ;
#22 = PERSON_AND_ORGANIZATION ( #208, #140 ) ;
#23 = LOCAL_TIME ( 10, 16, 36.00000000000000000, #78 ) ;
#24 = MECHANICAL_CONTEXT ( 'NONE', #2, 'mechanical' ) ;
#25 = VERTEX_POINT ( 'NONE', #131 ) ;
#26 = AXIS2_PLACEMENT_3D ( 'NONE', #54, #107, #239 ) ;
#27 = FACE_OUTER_BOUND ( 'NONE', #65, .T. ) ;
#28 = DIRECTION ( 'NONE',  ( -4.256963957985710640E-31, -1.000000000000000000, -1.219242935835426903E-16 ) ) ;
#29 = FACE_OUTER_BOUND ( 'NONE', #229, .T. ) ;
#30 = AXIS2_PLACEMENT_3D ( 'NONE', #184, #217, #105 ) ;
#31 = DIRECTION ( 'NONE',  ( -4.275831445896958607E-31, -1.000000000000000000, -1.224646799147353207E-16 ) ) ;
#32 = FACE_BOUND ( 'NONE', #213, .T. ) ;
#33 = PERSON_AND_ORGANIZATION ( #208, #140 ) ;
#34 = DIRECTION ( 'NONE',  ( -4.275831445896958607E-31, -1.000000000000000000, -1.224646799147353207E-16 ) ) ;
#35 = CIRCLE ( 'NONE', #191, 0.4500000000000000111 ) ;
#36 = CC_DESIGN_PERSON_AND_ORGANIZATION_ASSIGNMENT ( #121, #11, ( #80 ) ) ;
#37 = CARTESIAN_POINT ( 'NONE',  ( -3.590011283803261572E-30, -0.4499999999999999001, -1.028220097831820292E-15 ) ) ;
#38 = FACE_OUTER_BOUND ( 'NONE', #138, .T. ) ;
#39 = EDGE_CURVE ( 'NONE', #205, #205, #158, .T. ) ;
#40 = CARTESIAN_POINT ( 'NONE',  ( 1.571166602479409694E-14, -0.4500000000000005107, 4.499999999999999112 ) ) ;
#41 = PERSON_AND_ORGANIZATION_ROLE ( 'creator' ) ;
#42 = CONICAL_SURFACE ( 'NONE', #26, 2.499999999999992450, 0.2617993877991428575 ) ;
#43 = CARTESIAN_POINT ( 'NONE',  ( 0.0000000000000000000, 0.0000000000000000000, 0.0000000000000000000 ) ) ;
#44 =( NAMED_UNIT ( * ) SI_UNIT ( $, .STERADIAN. ) SOLID_ANGLE_UNIT ( ) );
#45 = AXIS2_PLACEMENT_3D ( 'NONE', #172, #81, #141 ) ;
#46 = ORIENTED_EDGE ( 'NONE', *, *, #235, .F. ) ;
#47 = EDGE_CURVE ( 'NONE', #25, #25, #90, .T. ) ;
#48 = ORIENTED_EDGE ( 'NONE', *, *, #224, .T. ) ;
#49 = PRODUCT_RELATED_PRODUCT_CATEGORY ( 'detail', '', ( #148 ) ) ;
#50 = AXIS2_PLACEMENT_3D ( 'NONE', #202, #178, #17 ) ;
#51 = ORIENTED_EDGE ( 'NONE', *, *, #19, .F. ) ;
#52 = ADVANCED_FACE ( 'NONE', ( #27, #164 ), #7, .T. ) ;
#53 = CARTESIAN_POINT ( 'NONE',  ( -1.282754905350004587E-30, 4.499298539707956128E-32, -3.673956068672651857E-16 ) ) ;
#54 = CARTESIAN_POINT ( 'NONE',  ( 4.334328128986607260E-14, -1.513569296237654315E-15, 12.41400915069115740 ) ) ;
#55 = CC_DESIGN_APPROVAL ( #207, ( #84 ) ) ;
#56 = APPROVAL_ROLE ( '' ) ;
#57 = DIRECTION ( 'NONE',  ( 3.491481338843133355E-15, -1.219242935835426903E-16, 1.000000000000000000 ) ) ;
#58 = CARTESIAN_POINT ( 'NONE',  ( 1.571166602479409694E-14, -5.486593211259419090E-16, 4.499999999999999112 ) ) ;
#59 = LOCAL_TIME ( 10, 16, 36.00000000000000000, #62 ) ;
#60 = FACE_OUTER_BOUND ( 'NONE', #117, .T. ) ;
#61 = PERSON_AND_ORGANIZATION_ROLE ( 'design_supplier' ) ;
#62 = COORDINATED_UNIVERSAL_TIME_OFFSET ( 1, 0, .AHEAD. ) ;
#63 = APPROVAL_PERSON_ORGANIZATION ( #243, #207, #96 ) ;
#64 = CC_DESIGN_PERSON_AND_ORGANIZATION_ASSIGNMENT ( #22, #95, ( #148 ) ) ;
#65 = EDGE_LOOP ( 'NONE', ( #48 ) ) ;
#66 = EDGE_LOOP ( 'NONE', ( #226 ) ) ;
#67 =( GEOMETRIC_REPRESENTATION_CONTEXT ( 3 ) GLOBAL_UNCERTAINTY_ASSIGNED_CONTEXT ( ( #93 ) ) GLOBAL_UNIT_ASSIGNED_CONTEXT ( ( #152, #209, #44 ) ) REPRESENTATION_CONTEXT ( 'NONE', 'WORKASPACE' ) );
#68 = EDGE_LOOP ( 'NONE', ( #165 ) ) ;
#69 = DIRECTION ( 'NONE',  ( -3.491481338843133355E-15, 1.224646799147353207E-16, -1.000000000000000000 ) ) ;
#70 = ORIENTED_EDGE ( 'NONE', *, *, #185, .T. ) ;
#71 = APPROVAL ( #113, 'UNSPECIFIED' ) ;
#72 = CARTESIAN_POINT ( 'NONE',  ( 0.0000000000000000000, 0.0000000000000000000, 0.0000000000000000000 ) ) ;
#73 = CARTESIAN_POINT ( 'NONE',  ( 1.571166602479409694E-14, -0.4500000000000005107, 4.499999999999999112 ) ) ;
#74 = CARTESIAN_POINT ( 'NONE',  ( 1.326762908760390423E-13, 1.199999999999989297, 38.00000000000000000 ) ) ;
#75 = ADVANCED_BREP_SHAPE_REPRESENTATION ( '48856', ( #129, #212, #3 ), #67 ) ;
#76 = VERTEX_POINT ( 'NONE', #73 ) ;
#77 = PRODUCT_DEFINITION ( 'UNKNOWN', '', #84, #130 ) ;
#78 = COORDINATED_UNIVERSAL_TIME_OFFSET ( 1, 0, .AHEAD. ) ;
#79 = DATE_AND_TIME ( #155, #23 ) ;
#80 = SECURITY_CLASSIFICATION ( '', '', #201 ) ;
#81 = DIRECTION ( 'NONE',  ( 3.491481338843133355E-15, -1.219242935835426903E-16, 1.000000000000000000 ) ) ;
#82 = ORIENTED_EDGE ( 'NONE', *, *, #159, .F. ) ;
#83 = CALENDAR_DATE ( 2021, 1, 11 ) ;
#84 = PRODUCT_DEFINITION_FORMATION_WITH_SPECIFIED_SOURCE ( 'ANY', '', #148, .NOT_KNOWN. ) ;
#85 = CARTESIAN_POINT ( 'NONE',  ( 3.031289553962453849E-14, -1.058541637906916682E-15, 8.681958343122179400 ) ) ;
#86 = FACE_OUTER_BOUND ( 'NONE', #66, .T. ) ;
#87 = ADVANCED_FACE ( 'NONE', ( #177 ), #216, .F. ) ;
#88 = PLANE ( 'NONE',  #181 ) ;
#89 = CYLINDRICAL_SURFACE ( 'NONE', #134, 0.4499999999999999556 ) ;
#90 = CIRCLE ( 'NONE', #153, 0.5181483474218596674 ) ;
#91 = ADVANCED_FACE ( 'NONE', ( #29 ), #168, .T. ) ;
#92 = CLOSED_SHELL ( 'NONE', ( #91, #206, #87 ) ) ;
#93 = UNCERTAINTY_MEASURE_WITH_UNIT (LENGTH_MEASURE( 1.000000000000000082E-05 ), #152, 'distance_accuracy_value', 'NONE');
#94 = PERSON_AND_ORGANIZATION ( #208, #140 ) ;
#95 = PERSON_AND_ORGANIZATION_ROLE ( 'design_owner' ) ;
#96 = APPROVAL_ROLE ( '' ) ;
#97 = APPROVAL_DATE_TIME ( #144, #123 ) ;
#98 = EDGE_LOOP ( 'NONE', ( #51 ) ) ;
#99 = AXIS2_PLACEMENT_3D ( 'NONE', #85, #160, #228 ) ;
#100 = PERSON_AND_ORGANIZATION_ROLE ( 'creator' ) ;
#101 = ORIENTED_EDGE ( 'NONE', *, *, #185, .F. ) ;
#102 = DATE_AND_TIME ( #109, #218 ) ;
#103 = AXIS2_PLACEMENT_3D ( 'NONE', #242, #170, #166 ) ;
#104 = ORIENTED_EDGE ( 'NONE', *, *, #19, .T. ) ;
#105 = DIRECTION ( 'NONE',  ( 0.0000000000000000000, 1.000000000000000000, 0.0000000000000000000 ) ) ;
#106 = CC_DESIGN_PERSON_AND_ORGANIZATION_ASSIGNMENT ( #154, #41, ( #84 ) ) ;
#107 = DIRECTION ( 'NONE',  ( 3.491481338843133355E-15, -1.219242935835426903E-16, 1.000000000000000000 ) ) ;
#108 = AXIS2_PLACEMENT_3D ( 'NONE', #115, #173, #28 ) ;
#109 = CALENDAR_DATE ( 2021, 1, 11 ) ;
#110 = PLANE ( 'NONE',  #10 ) ;
#111 = DATE_TIME_ROLE ( 'creation_date' ) ;
#112 = APPROVAL_PERSON_ORGANIZATION ( #33, #123, #56 ) ;
#113 = APPROVAL_STATUS ( 'not_yet_approved' ) ;
#114 = AXIS2_PLACEMENT_3D ( 'NONE', #169, #222, #31 ) ;
#115 = CARTESIAN_POINT ( 'NONE',  ( -3.398447905693904685E-30, 1.186755190619151968E-31, -9.733541657192261506E-16 ) ) ;
#116 = EDGE_LOOP ( 'NONE', ( #101 ) ) ;
#117 = EDGE_LOOP ( 'NONE', ( #82 ) ) ;
#118 = DATE_TIME_ROLE ( 'classification_date' ) ;
#119 = DIRECTION ( 'NONE',  ( 3.491481338843133355E-15, -1.224646799147353207E-16, 1.000000000000000000 ) ) ;
#120 = ADVANCED_FACE ( 'NONE', ( #38 ), #110, .F. ) ;
#121 = PERSON_AND_ORGANIZATION ( #208, #140 ) ;
#122 = DIRECTION ( 'NONE',  ( 4.275831445896958607E-31, 1.000000000000000000, 1.224646799147353207E-16 ) ) ;
#123 = APPROVAL ( #220, 'UNSPECIFIED' ) ;
#124 = DIRECTION ( 'NONE',  ( 3.491481338843133355E-15, -1.219242935835426903E-16, 1.000000000000000000 ) ) ;
#125 = DIRECTION ( 'NONE',  ( -4.256963957985708889E-31, -1.000000000000000000, -1.219242935835426903E-16 ) ) ;
#126 = VERTEX_POINT ( 'NONE', #13 ) ;
#127 = APPROVAL_PERSON_ORGANIZATION ( #94, #71, #186 ) ;
#128 = FACE_OUTER_BOUND ( 'NONE', #236, .T. ) ;
#129 = MANIFOLD_SOLID_BREP ( 'Corps-Déplacer/Copier1[1]', #149 ) ;
#130 = DESIGN_CONTEXT ( 'detailed design', #175, 'design' ) ;
#131 = CARTESIAN_POINT ( 'NONE',  ( 1.751898975701935175E-14, -0.5181483474218603336, 5.017638090205028156 ) ) ;
#132 = CIRCLE ( 'NONE', #30, 1.199999999999993738 ) ;
#133 = CC_DESIGN_DATE_AND_TIME_ASSIGNMENT ( #102, #118, ( #80 ) ) ;
#134 = AXIS2_PLACEMENT_3D ( 'NONE', #72, #57, #125 ) ;
#135 = DATE_AND_TIME ( #137, #59 ) ;
#136 = PERSON_AND_ORGANIZATION ( #208, #140 ) ;
#137 = CALENDAR_DATE ( 2021, 1, 11 ) ;
#138 = EDGE_LOOP ( 'NONE', ( #46 ) ) ;
#139 = ORIENTED_EDGE ( 'NONE', *, *, #224, .F. ) ;
#140 = ORGANIZATION ( 'UNSPECIFIED', 'UNSPECIFIED', '' ) ;
#141 = DIRECTION ( 'NONE',  ( -4.376313595753167576E-31, -1.000000000000000000, -1.219242935835426903E-16 ) ) ;
#142 = DIRECTION ( 'NONE',  ( 4.275831445896958607E-31, 1.000000000000000000, 1.224646799147353207E-16 ) ) ;
#143 = CARTESIAN_POINT ( 'NONE',  ( 1.571166602479409694E-14, -5.486593211259419090E-16, 4.499999999999999112 ) ) ;
#144 = DATE_AND_TIME ( #16, #225 ) ;
#145 = AXIS2_PLACEMENT_3D ( 'NONE', #234, #69, #142 ) ;
#146 = COORDINATED_UNIVERSAL_TIME_OFFSET ( 1, 0, .AHEAD. ) ;
#147 = DIRECTION ( 'NONE',  ( 3.491481338843133355E-15, -1.219242935835426903E-16, 1.000000000000000000 ) ) ;
#148 = PRODUCT ( '48856', '48856', '', ( #24 ) ) ;
#149 = CLOSED_SHELL ( 'NONE', ( #52, #151, #120, #192, #6, #230 ) ) ;
#150 = VERTEX_POINT ( 'NONE', #40 ) ;
#151 = ADVANCED_FACE ( 'NONE', ( #14, #183 ), #199, .T. ) ;
#152 =( LENGTH_UNIT ( ) NAMED_UNIT ( * ) SI_UNIT ( .MILLI., .METRE. ) );
#153 = AXIS2_PLACEMENT_3D ( 'NONE', #176, #194, #9 ) ;
#154 = PERSON_AND_ORGANIZATION ( #208, #140 ) ;
#155 = CALENDAR_DATE ( 2021, 1, 11 ) ;
#156 = APPROVAL_DATE_TIME ( #79, #71 ) ;
#157 = CC_DESIGN_PERSON_AND_ORGANIZATION_ASSIGNMENT ( #4, #61, ( #84 ) ) ;
#158 = CIRCLE ( 'NONE', #108, 0.4499999999999999001 ) ;
#159 = EDGE_CURVE ( 'NONE', #76, #76, #35, .T. ) ;
#160 = DIRECTION ( 'NONE',  ( -3.491481338843133355E-15, 1.219242935835426903E-16, -1.000000000000000000 ) ) ;
#161 = EDGE_LOOP ( 'NONE', ( #214 ) ) ;
#162 = DATE_AND_TIME ( #83, #20 ) ;
#163 = CC_DESIGN_APPROVAL ( #71, ( #77 ) ) ;
#164 = FACE_OUTER_BOUND ( 'NONE', #98, .T. ) ;
#165 = ORIENTED_EDGE ( 'NONE', *, *, #39, .T. ) ;
#166 = DIRECTION ( 'NONE',  ( 0.0000000000000000000, 1.000000000000000000, 0.0000000000000000000 ) ) ;
#167 = DIRECTION ( 'NONE',  ( 0.0000000000000000000, -1.000000000000000000, 0.0000000000000000000 ) ) ;
#168 = PLANE ( 'NONE',  #114 ) ;
#169 = CARTESIAN_POINT ( 'NONE',  ( 1.571166602479410010E-14, 1.124819836996384721E-32, 4.500000000000000000 ) ) ;
#170 = DIRECTION ( 'NONE',  ( -3.491481338843133355E-15, 1.224646799147353207E-16, -1.000000000000000000 ) ) ;
#171 = DIRECTION ( 'NONE',  ( 1.000000000000000000, 0.0000000000000000000, 0.0000000000000000000 ) ) ;
#172 = CARTESIAN_POINT ( 'NONE',  ( 1.571166602479410010E-14, -4.336808689942017736E-16, 4.500000000000000000 ) ) ;
#173 = DIRECTION ( 'NONE',  ( 3.491481338843133355E-15, -1.219242935835426903E-16, 1.000000000000000000 ) ) ;
#174 = ORIENTED_EDGE ( 'NONE', *, *, #47, .T. ) ;
#175 = APPLICATION_CONTEXT ( 'configuration controlled 3d designs of mechanical parts and assemblies' ) ;
#176 = CARTESIAN_POINT ( 'NONE',  ( 1.751898975701935175E-14, -6.117719796061243313E-16, 5.017638090205028156 ) ) ;
#177 = FACE_OUTER_BOUND ( 'NONE', #12, .T. ) ;
#178 = DIRECTION ( 'NONE',  ( -3.491481338843133355E-15, 1.224646799147353207E-16, -1.000000000000000000 ) ) ;
#179 = CC_DESIGN_PERSON_AND_ORGANIZATION_ASSIGNMENT ( #136, #100, ( #77 ) ) ;
#180 = FACE_OUTER_BOUND ( 'NONE', #68, .T. ) ;
#181 = AXIS2_PLACEMENT_3D ( 'NONE', #237, #200, #34 ) ;
#182 = COORDINATED_UNIVERSAL_TIME_OFFSET ( 1, 0, .AHEAD. ) ;
#183 = FACE_BOUND ( 'NONE', #161, .T. ) ;
#184 = CARTESIAN_POINT ( 'NONE',  ( 1.326762908760390423E-13, -4.653657836759941941E-15, 38.00000000000000000 ) ) ;
#185 = EDGE_CURVE ( 'NONE', #150, #150, #241, .T. ) ;
#186 = APPROVAL_ROLE ( '' ) ;
#187 = DIRECTION ( 'NONE',  ( 0.0000000000000000000, 0.0000000000000000000, 1.000000000000000000 ) ) ;
#188 = CC_DESIGN_DATE_AND_TIME_ASSIGNMENT ( #135, #111, ( #77 ) ) ;
#189 = PRODUCT_DEFINITION_SHAPE ( 'NONE', 'NONE',  #77 ) ;
#190 = SHAPE_DEFINITION_REPRESENTATION ( #189, #75 ) ;
#191 = AXIS2_PLACEMENT_3D ( 'NONE', #58, #124, #167 ) ;
#192 = ADVANCED_FACE ( 'NONE', ( #32, #128 ), #42, .T. ) ;
#193 = EDGE_LOOP ( 'NONE', ( #139 ) ) ;
#194 = DIRECTION ( 'NONE',  ( 3.491481338843133355E-15, -1.219242935835426903E-16, 1.000000000000000000 ) ) ;
#195 = TOROIDAL_SURFACE ( 'NONE', #45, 2.449999999999998845, 1.999999999999999556 ) ;
#196 = ORIENTED_EDGE ( 'NONE', *, *, #39, .F. ) ;
#197 = EDGE_LOOP ( 'NONE', ( #232 ) ) ;
#198 = DIRECTION ( 'NONE',  ( -4.275831445896958607E-31, -1.000000000000000000, -1.224646799147353207E-16 ) ) ;
#199 = CONICAL_SURFACE ( 'NONE', #103, 1.199999999999993738, 0.7853981633974453924 ) ;
#200 = DIRECTION ( 'NONE',  ( 3.491481338843133355E-15, -1.224646799147353207E-16, 1.000000000000000000 ) ) ;
#201 = SECURITY_CLASSIFICATION_LEVEL ( 'unclassified' ) ;
#202 = CARTESIAN_POINT ( 'NONE',  ( 1.316288464743861212E-13, -4.616918432785521081E-15, 37.69999999999999574 ) ) ;
#203 = AXIS2_PLACEMENT_3D ( 'NONE', #53, #119, #198 ) ;
#204 = CC_DESIGN_APPROVAL ( #123, ( #80 ) ) ;
#205 = VERTEX_POINT ( 'NONE', #37 ) ;
#206 = ADVANCED_FACE ( 'NONE', ( #180, #240 ), #89, .T. ) ;
#207 = APPROVAL ( #210, 'UNSPECIFIED' ) ;
#208 = PERSON ( 'UNSPECIFIED', 'UNSPECIFIED', 'UNSPECIFIED', ('UNSPECIFIED'), ('UNSPECIFIED'), ('UNSPECIFIED') ) ;
#209 =( NAMED_UNIT ( * ) PLANE_ANGLE_UNIT ( ) SI_UNIT ( $, .RADIAN. ) );
#210 = APPROVAL_STATUS ( 'not_yet_approved' ) ;
#211 = CARTESIAN_POINT ( 'NONE',  ( 1.316288464743861212E-13, 1.499999999999989120, 37.69999999999999574 ) ) ;
#212 = MANIFOLD_SOLID_BREP ( 'Corps-Déplacer/Copier1[2]', #92 ) ;
#213 = EDGE_LOOP ( 'NONE', ( #174 ) ) ;
#214 = ORIENTED_EDGE ( 'NONE', *, *, #235, .T. ) ;
#215 = COORDINATED_UNIVERSAL_TIME_OFFSET ( 1, 0, .AHEAD. ) ;
#216 = PLANE ( 'NONE',  #203 ) ;
#217 = DIRECTION ( 'NONE',  ( -3.491481338843133355E-15, 1.224646799147353207E-16, -1.000000000000000000 ) ) ;
#218 = LOCAL_TIME ( 10, 16, 36.00000000000000000, #146 ) ;
#219 = CC_DESIGN_SECURITY_CLASSIFICATION ( #80, ( #84 ) ) ;
#220 = APPROVAL_STATUS ( 'not_yet_approved' ) ;
#221 = DIRECTION ( 'NONE',  ( 0.0000000000000000000, -1.000000000000000000, 0.0000000000000000000 ) ) ;
#222 = DIRECTION ( 'NONE',  ( 3.491481338843133355E-15, -1.224646799147353207E-16, 1.000000000000000000 ) ) ;
#223 = VERTEX_POINT ( 'NONE', #211 ) ;
#224 = EDGE_CURVE ( 'NONE', #223, #223, #227, .T. ) ;
#225 = LOCAL_TIME ( 10, 16, 36.00000000000000000, #182 ) ;
#226 = ORIENTED_EDGE ( 'NONE', *, *, #47, .F. ) ;
#227 = CIRCLE ( 'NONE', #50, 1.499999999999993783 ) ;
#228 = DIRECTION ( 'NONE',  ( 0.0000000000000000000, -1.000000000000000000, 0.0000000000000000000 ) ) ;
#229 = EDGE_LOOP ( 'NONE', ( #70 ) ) ;
#230 = ADVANCED_FACE ( 'NONE', ( #60 ), #88, .F. ) ;
#231 = APPROVAL_DATE_TIME ( #162, #207 ) ;
#232 = ORIENTED_EDGE ( 'NONE', *, *, #159, .T. ) ;
#233 = CIRCLE ( 'NONE', #99, 1.499999999999991784 ) ;
#234 = CARTESIAN_POINT ( 'NONE',  ( 0.0000000000000000000, 0.0000000000000000000, 0.0000000000000000000 ) ) ;
#235 = EDGE_CURVE ( 'NONE', #1, #1, #132, .T. ) ;
#236 = EDGE_LOOP ( 'NONE', ( #104 ) ) ;
#237 = CARTESIAN_POINT ( 'NONE',  ( 1.571166602479410010E-14, 1.124819836996384721E-32, 4.500000000000000000 ) ) ;
#238 = DIRECTION ( 'NONE',  ( -3.491481338843133355E-15, 1.224646799147353207E-16, -1.000000000000000000 ) ) ;
#239 = DIRECTION ( 'NONE',  ( 0.0000000000000000000, -1.000000000000000000, 0.0000000000000000000 ) ) ;
#240 = FACE_OUTER_BOUND ( 'NONE', #116, .T. ) ;
#241 = CIRCLE ( 'NONE', #15, 0.4500000000000000111 ) ;
#242 = CARTESIAN_POINT ( 'NONE',  ( 1.326762908760390423E-13, -4.653657836759941941E-15, 38.00000000000000000 ) ) ;
#243 = PERSON_AND_ORGANIZATION ( #208, #140 ) ;
ENDSEC;
END-ISO-10303-21;
