ISO-10303-21;
HEADER;
FILE_DESCRIPTION (( 'STEP AP203' ),
    '1' );
FILE_NAME ('48855.step',
    '2021-11-01T09:16:35',
    ( '' ),
    ( '' ),
    'SwSTEP 2.0',
    'SolidWorks 2019',
    '' );
FILE_SCHEMA (( 'CONFIG_CONTROL_DESIGN' ));
ENDSEC;

DATA;
#1 = CC_DESIGN_PERSON_AND_ORGANIZATION_ASSIGNMENT ( #123, #6, ( #184 ) ) ;
#2 = CARTESIAN_POINT ( 'NONE',  ( 0.0000000000000000000, 0.0000000000000000000, 0.0000000000000000000 ) ) ;
#3 = CIRCLE ( 'NONE', #124, 0.4000000000000002442 ) ;
#4 = MECHANICAL_CONTEXT ( 'NONE', #176, 'mechanical' ) ;
#5 = CC_DESIGN_PERSON_AND_ORGANIZATION_ASSIGNMENT ( #21, #39, ( #113 ) ) ;
#6 = PERSON_AND_ORGANIZATION_ROLE ( 'design_owner' ) ;
#7 = PERSON_AND_ORGANIZATION ( #30, #156 ) ;
#8 = COORDINATED_UNIVERSAL_TIME_OFFSET ( 1, 0, .AHEAD. ) ;
#9 = UNCERTAINTY_MEASURE_WITH_UNIT (LENGTH_MEASURE( 1.000000000000000082E-05 ), #103, 'distance_accuracy_value', 'NONE');
#10 = ORIENTED_EDGE ( 'NONE', *, *, #35, .T. ) ;
#11 = CONICAL_SURFACE ( 'NONE', #221, 1.199999999999993738, 0.7853981633974453924 ) ;
#12 = CARTESIAN_POINT ( 'NONE',  ( -3.377163085903975909E-30, 1.179322423936229069E-31, -9.672579510400490456E-16 ) ) ;
#13 = DIRECTION ( 'NONE',  ( 0.0000000000000000000, -1.000000000000000000, 0.0000000000000000000 ) ) ;
#14 = DIRECTION ( 'NONE',  ( 0.0000000000000000000, -1.000000000000000000, 0.0000000000000000000 ) ) ;
#15 = FACE_OUTER_BOUND ( 'NONE', #216, .T. ) ;
#16 = APPLICATION_PROTOCOL_DEFINITION ( 'international standard', 'config_control_design', 1994, #176 ) ;
#17 = MANIFOLD_SOLID_BREP ( 'Corps-Déplacer/Copier1[2]', #78 ) ;
#18 = ADVANCED_FACE ( 'NONE', ( #96, #94 ), #114, .T. ) ;
#19 = CC_DESIGN_APPROVAL ( #153, ( #189 ) ) ;
#20 = DIRECTION ( 'NONE',  ( 0.0000000000000000000, 1.000000000000000000, 0.0000000000000000000 ) ) ;
#21 = PERSON_AND_ORGANIZATION ( #30, #156 ) ;
#22 = DIRECTION ( 'NONE',  ( -3.491481338843133355E-15, 1.224646799147353207E-16, -1.000000000000000000 ) ) ;
#23 = AXIS2_PLACEMENT_3D ( 'NONE', #112, #67, #169 ) ;
#24 = CALENDAR_DATE ( 2021, 1, 11 ) ;
#25 = PERSON_AND_ORGANIZATION_ROLE ( 'classification_officer' ) ;
#26 = AXIS2_PLACEMENT_3D ( 'NONE', #71, #139, #154 ) ;
#27 = APPROVAL_ROLE ( '' ) ;
#28 = ORIENTED_EDGE ( 'NONE', *, *, #111, .F. ) ;
#29 = AXIS2_PLACEMENT_3D ( 'NONE', #72, #57, #240 ) ;
#30 = PERSON ( 'UNSPECIFIED', 'UNSPECIFIED', 'UNSPECIFIED', ('UNSPECIFIED'), ('UNSPECIFIED'), ('UNSPECIFIED') ) ;
#31 = DIRECTION ( 'NONE',  ( -4.256963957985706261E-31, -1.000000000000000000, -1.219242935835428382E-16 ) ) ;
#32 = DIRECTION ( 'NONE',  ( -3.491481338843133355E-15, 1.224646799147353207E-16, -1.000000000000000000 ) ) ;
#33 = FACE_OUTER_BOUND ( 'NONE', #166, .T. ) ;
#34 = AXIS2_PLACEMENT_3D ( 'NONE', #52, #117, #225 ) ;
#35 = EDGE_CURVE ( 'NONE', #143, #143, #3, .T. ) ;
#36 = FACE_OUTER_BOUND ( 'NONE', #63, .T. ) ;
#37 = FACE_OUTER_BOUND ( 'NONE', #88, .T. ) ;
#38 = CARTESIAN_POINT ( 'NONE',  ( 1.577324908759778191E-14, -0.4681483474218604002, 4.517638090205026380 ) ) ;
#39 = PERSON_AND_ORGANIZATION_ROLE ( 'creator' ) ;
#40 = CIRCLE ( 'NONE', #29, 0.4681483474218599006 ) ;
#41 = CARTESIAN_POINT ( 'NONE',  ( 1.396592535537253342E-14, 1.124819836996384858E-32, 4.000000000000000000 ) ) ;
#42 = COORDINATED_UNIVERSAL_TIME_OFFSET ( 1, 0, .AHEAD. ) ;
#43 = EDGE_LOOP ( 'NONE', ( #204 ) ) ;
#44 = SECURITY_CLASSIFICATION_LEVEL ( 'unclassified' ) ;
#45 = ORIENTED_EDGE ( 'NONE', *, *, #134, .T. ) ;
#46 = ADVANCED_FACE ( 'NONE', ( #133 ), #236, .F. ) ;
#47 = LOCAL_TIME ( 10, 16, 35.00000000000000000, #177 ) ;
#48 = APPROVAL ( #98, 'UNSPECIFIED' ) ;
#49 = ORIENTED_EDGE ( 'NONE', *, *, #122, .F. ) ;
#50 = EDGE_LOOP ( 'NONE', ( #149 ) ) ;
#51 = AXIS2_PLACEMENT_3D ( 'NONE', #141, #22, #20 ) ;
#52 = CARTESIAN_POINT ( 'NONE',  ( -1.282754905350004587E-30, 4.499298539707956128E-32, -3.673956068672651857E-16 ) ) ;
#53 = DIRECTION ( 'NONE',  ( 3.491481338843133355E-15, -1.224646799147353207E-16, 1.000000000000000000 ) ) ;
#54 = PRODUCT_DEFINITION_SHAPE ( 'NONE', 'NONE',  #113 ) ;
#55 = DIRECTION ( 'NONE',  ( -4.256963957985708889E-31, -1.000000000000000000, -1.219242935835426903E-16 ) ) ;
#56 = FACE_BOUND ( 'NONE', #151, .T. ) ;
#57 = DIRECTION ( 'NONE',  ( 3.491481338843133355E-15, -1.219242935835426903E-16, 1.000000000000000000 ) ) ;
#58 = DIRECTION ( 'NONE',  ( -4.275831445896958607E-31, -1.000000000000000000, -1.224646799147353207E-16 ) ) ;
#59 = CC_DESIGN_PERSON_AND_ORGANIZATION_ASSIGNMENT ( #199, #87, ( #189 ) ) ;
#60 = SECURITY_CLASSIFICATION ( '', '', #44 ) ;
#61 = DIRECTION ( 'NONE',  ( 0.0000000000000000000, 0.0000000000000000000, 1.000000000000000000 ) ) ;
#62 = APPROVAL_PERSON_ORGANIZATION ( #195, #153, #27 ) ;
#63 = EDGE_LOOP ( 'NONE', ( #202 ) ) ;
#64 = CIRCLE ( 'NONE', #179, 0.4000000000000002442 ) ;
#65 = EDGE_LOOP ( 'NONE', ( #232 ) ) ;
#66 = ORIENTED_EDGE ( 'NONE', *, *, #213, .T. ) ;
#67 = DIRECTION ( 'NONE',  ( -3.491481338843133355E-15, 1.224646799147353207E-16, -1.000000000000000000 ) ) ;
#68 = ADVANCED_FACE ( 'NONE', ( #171, #37 ), #187, .T. ) ;
#69 = TOROIDAL_SURFACE ( 'NONE', #99, 2.400000000000000355, 2.000000000000000000 ) ;
#70 = FACE_OUTER_BOUND ( 'NONE', #201, .T. ) ;
#71 = CARTESIAN_POINT ( 'NONE',  ( 0.0000000000000000000, 0.0000000000000000000, 0.0000000000000000000 ) ) ;
#72 = CARTESIAN_POINT ( 'NONE',  ( 1.577324908759778191E-14, -5.508098328143527889E-16, 4.517638090205026380 ) ) ;
#73 = CYLINDRICAL_SURFACE ( 'NONE', #26, 1.499999999999991784 ) ;
#74 = CIRCLE ( 'NONE', #51, 1.199999999999993738 ) ;
#75 = VERTEX_POINT ( 'NONE', #243 ) ;
#76 = VERTEX_POINT ( 'NONE', #82 ) ;
#77 = CALENDAR_DATE ( 2021, 1, 11 ) ;
#78 = CLOSED_SHELL ( 'NONE', ( #164, #68, #46 ) ) ;
#79 = PRODUCT_RELATED_PRODUCT_CATEGORY ( 'detail', '', ( #184 ) ) ;
#80 = LOCAL_TIME ( 10, 16, 35.00000000000000000, #42 ) ;
#81 = ORIENTED_EDGE ( 'NONE', *, *, #35, .F. ) ;
#82 = CARTESIAN_POINT ( 'NONE',  ( -3.547441644223404720E-30, -0.3999999999999999667, -1.016027668473466280E-15 ) ) ;
#83 = DIRECTION ( 'NONE',  ( 3.491481338843133355E-15, -1.224646799147353207E-16, 1.000000000000000000 ) ) ;
#84 = DATE_AND_TIME ( #197, #130 ) ;
#85 = APPROVAL_STATUS ( 'not_yet_approved' ) ;
#86 = ADVANCED_FACE ( 'NONE', ( #36, #15 ), #69, .F. ) ;
#87 = PERSON_AND_ORGANIZATION_ROLE ( 'creator' ) ;
#88 = EDGE_LOOP ( 'NONE', ( #81 ) ) ;
#89 =( GEOMETRIC_REPRESENTATION_CONTEXT ( 3 ) GLOBAL_UNCERTAINTY_ASSIGNED_CONTEXT ( ( #9 ) ) GLOBAL_UNIT_ASSIGNED_CONTEXT ( ( #103, #192, #181 ) ) REPRESENTATION_CONTEXT ( 'NONE', 'WORKASPACE' ) );
#90 = DIRECTION ( 'NONE',  ( 3.491481338843133355E-15, -1.219242935835426903E-16, 1.000000000000000000 ) ) ;
#91 = EDGE_CURVE ( 'NONE', #228, #228, #64, .T. ) ;
#92 = CC_DESIGN_DATE_AND_TIME_ASSIGNMENT ( #148, #125, ( #60 ) ) ;
#93 = CARTESIAN_POINT ( 'NONE',  ( 1.316288464743861212E-13, -4.616918432785521081E-15, 37.69999999999999574 ) ) ;
#94 = FACE_OUTER_BOUND ( 'NONE', #147, .T. ) ;
#95 = FACE_OUTER_BOUND ( 'NONE', #218, .T. ) ;
#96 = FACE_BOUND ( 'NONE', #43, .T. ) ;
#97 = APPROVAL ( #85, 'UNSPECIFIED' ) ;
#98 = APPROVAL_STATUS ( 'not_yet_approved' ) ;
#99 = AXIS2_PLACEMENT_3D ( 'NONE', #191, #116, #115 ) ;
#100 = VERTEX_POINT ( 'NONE', #162 ) ;
#101 = VERTEX_POINT ( 'NONE', #38 ) ;
#102 = AXIS2_PLACEMENT_3D ( 'NONE', #210, #173, #220 ) ;
#103 =( LENGTH_UNIT ( ) NAMED_UNIT ( * ) SI_UNIT ( .MILLI., .METRE. ) );
#104 = APPROVAL_DATE_TIME ( #84, #153 ) ;
#105 = COORDINATED_UNIVERSAL_TIME_OFFSET ( 1, 0, .AHEAD. ) ;
#106 = AXIS2_PLACEMENT_3D ( 'NONE', #41, #83, #58 ) ;
#107 = DATE_AND_TIME ( #185, #205 ) ;
#108 = AXIS2_PLACEMENT_3D ( 'NONE', #2, #61, #118 ) ;
#109 = ORIENTED_EDGE ( 'NONE', *, *, #134, .F. ) ;
#110 = PLANE ( 'NONE',  #23 ) ;
#111 = EDGE_CURVE ( 'NONE', #101, #101, #40, .T. ) ;
#112 = CARTESIAN_POINT ( 'NONE',  ( 1.326762908760390423E-13, 8.998558695971030697E-33, 38.00000000000000000 ) ) ;
#113 = PRODUCT_DEFINITION ( 'UNKNOWN', '', #189, #233 ) ;
#114 = CONICAL_SURFACE ( 'NONE', #102, 2.499999999999992450, 0.2617993877991428575 ) ;
#115 = DIRECTION ( 'NONE',  ( -4.377669841636889275E-31, -1.000000000000000000, -1.219242935835426903E-16 ) ) ;
#116 = DIRECTION ( 'NONE',  ( 3.491481338843133355E-15, -1.219242935835426903E-16, 1.000000000000000000 ) ) ;
#117 = DIRECTION ( 'NONE',  ( 3.491481338843133355E-15, -1.224646799147353207E-16, 1.000000000000000000 ) ) ;
#118 = DIRECTION ( 'NONE',  ( 1.000000000000000000, 0.0000000000000000000, 0.0000000000000000000 ) ) ;
#119 = ADVANCED_FACE ( 'NONE', ( #224, #95 ), #73, .T. ) ;
#120 = PLANE ( 'NONE',  #106 ) ;
#121 = CALENDAR_DATE ( 2021, 1, 11 ) ;
#122 = EDGE_CURVE ( 'NONE', #230, #230, #159, .T. ) ;
#123 = PERSON_AND_ORGANIZATION ( #30, #156 ) ;
#124 = AXIS2_PLACEMENT_3D ( 'NONE', #152, #155, #14 ) ;
#125 = DATE_TIME_ROLE ( 'classification_date' ) ;
#126 = EDGE_LOOP ( 'NONE', ( #131 ) ) ;
#127 = APPROVAL_ROLE ( '' ) ;
#128 = ORIENTED_EDGE ( 'NONE', *, *, #122, .T. ) ;
#129 = APPROVAL_PERSON_ORGANIZATION ( #7, #97, #127 ) ;
#130 = LOCAL_TIME ( 10, 16, 35.00000000000000000, #8 ) ;
#131 = ORIENTED_EDGE ( 'NONE', *, *, #161, .F. ) ;
#132 = CC_DESIGN_SECURITY_CLASSIFICATION ( #60, ( #189 ) ) ;
#133 = FACE_OUTER_BOUND ( 'NONE', #217, .T. ) ;
#134 = EDGE_CURVE ( 'NONE', #76, #76, #234, .T. ) ;
#135 = FACE_OUTER_BOUND ( 'NONE', #126, .T. ) ;
#136 = CARTESIAN_POINT ( 'NONE',  ( 1.396592535537253342E-14, -4.876971743341707611E-16, 4.000000000000000000 ) ) ;
#137 = AXIS2_PLACEMENT_3D ( 'NONE', #12, #90, #31 ) ;
#138 = CARTESIAN_POINT ( 'NONE',  ( 1.326762908760390423E-13, -4.653657836759941941E-15, 38.00000000000000000 ) ) ;
#139 = DIRECTION ( 'NONE',  ( -3.491481338843133355E-15, 1.224646799147353207E-16, -1.000000000000000000 ) ) ;
#140 = PERSON_AND_ORGANIZATION ( #30, #156 ) ;
#141 = CARTESIAN_POINT ( 'NONE',  ( 1.326762908760390423E-13, -4.653657836759941941E-15, 38.00000000000000000 ) ) ;
#142 = ADVANCED_FACE ( 'NONE', ( #33 ), #110, .F. ) ;
#143 = VERTEX_POINT ( 'NONE', #144 ) ;
#144 = CARTESIAN_POINT ( 'NONE',  ( 1.396592535537253342E-14, -0.4000000000000007438, 4.000000000000000000 ) ) ;
#145 = CC_DESIGN_APPROVAL ( #48, ( #113 ) ) ;
#146 = PERSON_AND_ORGANIZATION ( #30, #156 ) ;
#147 = EDGE_LOOP ( 'NONE', ( #128 ) ) ;
#148 = DATE_AND_TIME ( #24, #80 ) ;
#149 = ORIENTED_EDGE ( 'NONE', *, *, #161, .T. ) ;
#150 = AXIS2_PLACEMENT_3D ( 'NONE', #239, #190, #55 ) ;
#151 = EDGE_LOOP ( 'NONE', ( #66 ) ) ;
#152 = CARTESIAN_POINT ( 'NONE',  ( 1.396592535537253342E-14, -4.876971743341707611E-16, 4.000000000000000000 ) ) ;
#153 = APPROVAL ( #215, 'UNSPECIFIED' ) ;
#154 = DIRECTION ( 'NONE',  ( 4.275831445896958607E-31, 1.000000000000000000, 1.224646799147353207E-16 ) ) ;
#155 = DIRECTION ( 'NONE',  ( 3.491481338843133355E-15, -1.219242935835426903E-16, 1.000000000000000000 ) ) ;
#156 = ORGANIZATION ( 'UNSPECIFIED', 'UNSPECIFIED', '' ) ;
#157 = CARTESIAN_POINT ( 'NONE',  ( 2.921867415771503558E-14, -1.020330874031681715E-15, 8.368560883500625991 ) ) ;
#158 = COORDINATED_UNIVERSAL_TIME_OFFSET ( 1, 0, .AHEAD. ) ;
#159 = CIRCLE ( 'NONE', #209, 1.499999999999991784 ) ;
#160 = DATE_TIME_ROLE ( 'creation_date' ) ;
#161 = EDGE_CURVE ( 'NONE', #100, #100, #214, .T. ) ;
#162 = CARTESIAN_POINT ( 'NONE',  ( 1.316288464743861212E-13, 1.499999999999989120, 37.69999999999999574 ) ) ;
#163 = CARTESIAN_POINT ( 'NONE',  ( 1.396592535537253342E-14, -0.4000000000000007438, 4.000000000000000000 ) ) ;
#164 = ADVANCED_FACE ( 'NONE', ( #70 ), #207, .T. ) ;
#165 = PERSON_AND_ORGANIZATION_ROLE ( 'design_supplier' ) ;
#166 = EDGE_LOOP ( 'NONE', ( #219 ) ) ;
#167 = APPROVAL_DATE_TIME ( #107, #97 ) ;
#168 = AXIS2_PLACEMENT_3D ( 'NONE', #222, #53, #172 ) ;
#169 = DIRECTION ( 'NONE',  ( 4.275831445896958607E-31, 1.000000000000000000, 1.224646799147353207E-16 ) ) ;
#170 = DIRECTION ( 'NONE',  ( -3.491481338843133355E-15, 1.224646799147353207E-16, -1.000000000000000000 ) ) ;
#171 = FACE_OUTER_BOUND ( 'NONE', #235, .T. ) ;
#172 = DIRECTION ( 'NONE',  ( -4.275831445896958607E-31, -1.000000000000000000, -1.224646799147353207E-16 ) ) ;
#173 = DIRECTION ( 'NONE',  ( 3.491481338843133355E-15, -1.219242935835426903E-16, 1.000000000000000000 ) ) ;
#174 = LOCAL_TIME ( 10, 16, 35.00000000000000000, #158 ) ;
#175 = DATE_AND_TIME ( #77, #47 ) ;
#176 = APPLICATION_CONTEXT ( 'configuration controlled 3d designs of mechanical parts and assemblies' ) ;
#177 = COORDINATED_UNIVERSAL_TIME_OFFSET ( 1, 0, .AHEAD. ) ;
#178 = CC_DESIGN_PERSON_AND_ORGANIZATION_ASSIGNMENT ( #146, #165, ( #189 ) ) ;
#179 = AXIS2_PLACEMENT_3D ( 'NONE', #136, #206, #13 ) ;
#180 = MANIFOLD_SOLID_BREP ( 'Corps-Déplacer/Copier1[1]', #203 ) ;
#181 =( NAMED_UNIT ( * ) SI_UNIT ( $, .STERADIAN. ) SOLID_ANGLE_UNIT ( ) );
#182 = ADVANCED_FACE ( 'NONE', ( #135, #56 ), #11, .T. ) ;
#183 = PERSON_AND_ORGANIZATION ( #30, #156 ) ;
#184 = PRODUCT ( '48855', '48855', '', ( #4 ) ) ;
#185 = CALENDAR_DATE ( 2021, 1, 11 ) ;
#186 = AXIS2_PLACEMENT_3D ( 'NONE', #93, #170, #237 ) ;
#187 = CYLINDRICAL_SURFACE ( 'NONE', #150, 0.4000000000000000777 ) ;
#188 = DIRECTION ( 'NONE',  ( 0.0000000000000000000, 1.000000000000000000, 0.0000000000000000000 ) ) ;
#189 = PRODUCT_DEFINITION_FORMATION_WITH_SPECIFIED_SOURCE ( 'ANY', '', #184, .NOT_KNOWN. ) ;
#190 = DIRECTION ( 'NONE',  ( 3.491481338843133355E-15, -1.219242935835426903E-16, 1.000000000000000000 ) ) ;
#191 = CARTESIAN_POINT ( 'NONE',  ( 1.396592535537253342E-14, -4.336808689942017736E-16, 4.000000000000000000 ) ) ;
#192 =( NAMED_UNIT ( * ) PLANE_ANGLE_UNIT ( ) SI_UNIT ( $, .RADIAN. ) );
#193 = CC_DESIGN_PERSON_AND_ORGANIZATION_ASSIGNMENT ( #183, #25, ( #60 ) ) ;
#194 = APPROVAL_DATE_TIME ( #175, #48 ) ;
#195 = PERSON_AND_ORGANIZATION ( #30, #156 ) ;
#196 = APPLICATION_PROTOCOL_DEFINITION ( 'international standard', 'config_control_design', 1994, #242 ) ;
#197 = CALENDAR_DATE ( 2021, 1, 11 ) ;
#198 = ADVANCED_FACE ( 'NONE', ( #238 ), #120, .F. ) ;
#199 = PERSON_AND_ORGANIZATION ( #30, #156 ) ;
#200 = SHAPE_DEFINITION_REPRESENTATION ( #54, #223 ) ;
#201 = EDGE_LOOP ( 'NONE', ( #10 ) ) ;
#202 = ORIENTED_EDGE ( 'NONE', *, *, #91, .T. ) ;
#203 = CLOSED_SHELL ( 'NONE', ( #119, #182, #142, #18, #86, #198 ) ) ;
#204 = ORIENTED_EDGE ( 'NONE', *, *, #111, .T. ) ;
#205 = LOCAL_TIME ( 10, 16, 35.00000000000000000, #105 ) ;
#206 = DIRECTION ( 'NONE',  ( 3.491481338843133355E-15, -1.219242935835426903E-16, 1.000000000000000000 ) ) ;
#207 = PLANE ( 'NONE',  #168 ) ;
#208 = DIRECTION ( 'NONE',  ( 0.0000000000000000000, -1.000000000000000000, 0.0000000000000000000 ) ) ;
#209 = AXIS2_PLACEMENT_3D ( 'NONE', #157, #211, #208 ) ;
#210 = CARTESIAN_POINT ( 'NONE',  ( 4.224905990795656969E-14, -1.475358532362419349E-15, 12.10061169106960399 ) ) ;
#211 = DIRECTION ( 'NONE',  ( -3.491481338843133355E-15, 1.219242935835426903E-16, -1.000000000000000000 ) ) ;
#212 = APPROVAL_ROLE ( '' ) ;
#213 = EDGE_CURVE ( 'NONE', #75, #75, #74, .T. ) ;
#214 = CIRCLE ( 'NONE', #186, 1.499999999999993783 ) ;
#215 = APPROVAL_STATUS ( 'not_yet_approved' ) ;
#216 = EDGE_LOOP ( 'NONE', ( #28 ) ) ;
#217 = EDGE_LOOP ( 'NONE', ( #109 ) ) ;
#218 = EDGE_LOOP ( 'NONE', ( #49 ) ) ;
#219 = ORIENTED_EDGE ( 'NONE', *, *, #213, .F. ) ;
#220 = DIRECTION ( 'NONE',  ( 0.0000000000000000000, -1.000000000000000000, 0.0000000000000000000 ) ) ;
#221 = AXIS2_PLACEMENT_3D ( 'NONE', #138, #32, #188 ) ;
#222 = CARTESIAN_POINT ( 'NONE',  ( 1.396592535537253342E-14, 1.124819836996384858E-32, 4.000000000000000000 ) ) ;
#223 = ADVANCED_BREP_SHAPE_REPRESENTATION ( '48855', ( #180, #17, #108 ), #89 ) ;
#224 = FACE_OUTER_BOUND ( 'NONE', #50, .T. ) ;
#225 = DIRECTION ( 'NONE',  ( -4.275831445896958607E-31, -1.000000000000000000, -1.224646799147353207E-16 ) ) ;
#226 = CC_DESIGN_DATE_AND_TIME_ASSIGNMENT ( #227, #160, ( #113 ) ) ;
#227 = DATE_AND_TIME ( #121, #174 ) ;
#228 = VERTEX_POINT ( 'NONE', #163 ) ;
#229 = CARTESIAN_POINT ( 'NONE',  ( 2.921867415771503558E-14, -1.499999999999992895, 8.368560883500625991 ) ) ;
#230 = VERTEX_POINT ( 'NONE', #229 ) ;
#231 = CC_DESIGN_APPROVAL ( #97, ( #60 ) ) ;
#232 = ORIENTED_EDGE ( 'NONE', *, *, #91, .F. ) ;
#233 = DESIGN_CONTEXT ( 'detailed design', #242, 'design' ) ;
#234 = CIRCLE ( 'NONE', #137, 0.3999999999999999667 ) ;
#235 = EDGE_LOOP ( 'NONE', ( #45 ) ) ;
#236 = PLANE ( 'NONE',  #34 ) ;
#237 = DIRECTION ( 'NONE',  ( 0.0000000000000000000, 1.000000000000000000, 0.0000000000000000000 ) ) ;
#238 = FACE_OUTER_BOUND ( 'NONE', #65, .T. ) ;
#239 = CARTESIAN_POINT ( 'NONE',  ( 0.0000000000000000000, 0.0000000000000000000, 0.0000000000000000000 ) ) ;
#240 = DIRECTION ( 'NONE',  ( 0.0000000000000000000, -1.000000000000000000, 0.0000000000000000000 ) ) ;
#241 = APPROVAL_PERSON_ORGANIZATION ( #140, #48, #212 ) ;
#242 = APPLICATION_CONTEXT ( 'configuration controlled 3d designs of mechanical parts and assemblies' ) ;
#243 = CARTESIAN_POINT ( 'NONE',  ( 1.326762908760390423E-13, 1.199999999999989297, 38.00000000000000000 ) ) ;
ENDSEC;
END-ISO-10303-21;
