ISO-10303-21;
HEADER;
FILE_DESCRIPTION (( 'STEP AP203' ),
    '1' );
FILE_NAME ('48854.step',
    '2021-11-01T09:16:35',
    ( '' ),
    ( '' ),
    'SwSTEP 2.0',
    'SolidWorks 2019',
    '' );
FILE_SCHEMA (( 'CONFIG_CONTROL_DESIGN' ));
ENDSEC;

DATA;
#1 = CIRCLE ( 'NONE', #202, 1.199999999999993738 ) ;
#2 = DIRECTION ( 'NONE',  ( -3.491481338843133355E-15, 1.224646799147353207E-16, -1.000000000000000000 ) ) ;
#3 = VERTEX_POINT ( 'NONE', #187 ) ;
#4 = FACE_BOUND ( 'NONE', #221, .T. ) ;
#5 = FACE_OUTER_BOUND ( 'NONE', #88, .T. ) ;
#6 = FACE_OUTER_BOUND ( 'NONE', #146, .T. ) ;
#7 = CLOSED_SHELL ( 'NONE', ( #151, #112, #219 ) ) ;
#8 = APPLICATION_PROTOCOL_DEFINITION ( 'international standard', 'config_control_design', 1994, #243 ) ;
#9 = DIRECTION ( 'NONE',  ( -4.256963957985700131E-31, -1.000000000000000000, -1.219242935835424684E-16 ) ) ;
#10 = PERSON_AND_ORGANIZATION ( #52, #110 ) ;
#11 = CARTESIAN_POINT ( 'NONE',  ( 1.222018468595096517E-14, 1.124819836996384858E-32, 3.499999999999999556 ) ) ;
#12 = UNCERTAINTY_MEASURE_WITH_UNIT (LENGTH_MEASURE( 1.000000000000000082E-05 ), #193, 'distance_accuracy_value', 'NONE');
#13 = ORIENTED_EDGE ( 'NONE', *, *, #124, .F. ) ;
#14 = AXIS2_PLACEMENT_3D ( 'NONE', #229, #153, #9 ) ;
#15 = EDGE_LOOP ( 'NONE', ( #239 ) ) ;
#16 = CARTESIAN_POINT ( 'NONE',  ( 1.402750841817621366E-14, -0.4181483474218601892, 4.017638090205026380 ) ) ;
#17 = EDGE_CURVE ( 'NONE', #24, #24, #189, .T. ) ;
#18 =( NAMED_UNIT ( * ) PLANE_ANGLE_UNIT ( ) SI_UNIT ( $, .RADIAN. ) );
#19 = CC_DESIGN_SECURITY_CLASSIFICATION ( #50, ( #209 ) ) ;
#20 = APPROVAL_ROLE ( '' ) ;
#21 = DIRECTION ( 'NONE',  ( 4.275831445896958607E-31, 1.000000000000000000, 1.224646799147353207E-16 ) ) ;
#22 = DIRECTION ( 'NONE',  ( 0.0000000000000000000, 1.000000000000000000, 0.0000000000000000000 ) ) ;
#23 = DIRECTION ( 'NONE',  ( -4.318010611786305654E-31, -1.000000000000000000, -1.219242935835426903E-16 ) ) ;
#24 = VERTEX_POINT ( 'NONE', #205 ) ;
#25 = DIRECTION ( 'NONE',  ( 0.0000000000000000000, -1.000000000000000000, 0.0000000000000000000 ) ) ;
#26 = CIRCLE ( 'NONE', #14, 0.3500000000000000333 ) ;
#27 = APPROVAL_STATUS ( 'not_yet_approved' ) ;
#28 = DIRECTION ( 'NONE',  ( 0.0000000000000000000, -1.000000000000000000, 0.0000000000000000000 ) ) ;
#29 = FACE_OUTER_BOUND ( 'NONE', #126, .T. ) ;
#30 = CONICAL_SURFACE ( 'NONE', #169, 2.499999999999992895, 0.2617993877991428575 ) ;
#31 = ORIENTED_EDGE ( 'NONE', *, *, #95, .F. ) ;
#32 = EDGE_LOOP ( 'NONE', ( #240 ) ) ;
#33 = ORIENTED_EDGE ( 'NONE', *, *, #17, .F. ) ;
#34 = LOCAL_TIME ( 10, 16, 35.00000000000000000, #83 ) ;
#35 = DIRECTION ( 'NONE',  ( 3.491481338843133355E-15, -1.219242935835426903E-16, 1.000000000000000000 ) ) ;
#36 = AXIS2_PLACEMENT_3D ( 'NONE', #64, #214, #44 ) ;
#37 = DATE_AND_TIME ( #99, #34 ) ;
#38 = VERTEX_POINT ( 'NONE', #128 ) ;
#39 = FACE_OUTER_BOUND ( 'NONE', #51, .T. ) ;
#40 = ADVANCED_FACE ( 'NONE', ( #172 ), #119, .F. ) ;
#41 = PLANE ( 'NONE',  #55 ) ;
#42 = CALENDAR_DATE ( 2021, 1, 11 ) ;
#43 = DIRECTION ( 'NONE',  ( 3.491481338843133355E-15, -1.219242935835426903E-16, 1.000000000000000000 ) ) ;
#44 = DIRECTION ( 'NONE',  ( 0.0000000000000000000, 1.000000000000000000, 0.0000000000000000000 ) ) ;
#45 = CLOSED_SHELL ( 'NONE', ( #183, #204, #40, #178, #58, #138 ) ) ;
#46 = APPLICATION_CONTEXT ( 'configuration controlled 3d designs of mechanical parts and assemblies' ) ;
#47 = APPROVAL_DATE_TIME ( #235, #115 ) ;
#48 = CARTESIAN_POINT ( 'NONE',  ( 1.222018468595096359E-14, -4.267350275423993666E-16, 3.499999999999999112 ) ) ;
#49 = TOROIDAL_SURFACE ( 'NONE', #109, 2.350000000000000089, 2.000000000000000000 ) ;
#50 = SECURITY_CLASSIFICATION ( '', '', #220 ) ;
#51 = EDGE_LOOP ( 'NONE', ( #222 ) ) ;
#52 = PERSON ( 'UNSPECIFIED', 'UNSPECIFIED', 'UNSPECIFIED', ('UNSPECIFIED'), ('UNSPECIFIED'), ('UNSPECIFIED') ) ;
#53 = ORIENTED_EDGE ( 'NONE', *, *, #95, .T. ) ;
#54 = EDGE_LOOP ( 'NONE', ( #107 ) ) ;
#55 = AXIS2_PLACEMENT_3D ( 'NONE', #102, #188, #191 ) ;
#56 = MANIFOLD_SOLID_BREP ( 'Corps-Déplacer/Copier1[1]', #45 ) ;
#57 = MANIFOLD_SOLID_BREP ( 'Corps-Déplacer/Copier1[2]', #7 ) ;
#58 = ADVANCED_FACE ( 'NONE', ( #69, #29 ), #49, .F. ) ;
#59 = MECHANICAL_CONTEXT ( 'NONE', #243, 'mechanical' ) ;
#60 = AXIS2_PLACEMENT_3D ( 'NONE', #210, #232, #123 ) ;
#61 = AXIS2_PLACEMENT_3D ( 'NONE', #143, #190, #21 ) ;
#62 = APPROVAL_DATE_TIME ( #37, #91 ) ;
#63 = VERTEX_POINT ( 'NONE', #82 ) ;
#64 = CARTESIAN_POINT ( 'NONE',  ( 1.316288464743861212E-13, -4.616918432785521081E-15, 37.69999999999999574 ) ) ;
#65 = PLANE ( 'NONE',  #96 ) ;
#66 = FACE_OUTER_BOUND ( 'NONE', #111, .T. ) ;
#67 = CALENDAR_DATE ( 2021, 1, 11 ) ;
#68 = PRODUCT ( '48854', '48854', '', ( #59 ) ) ;
#69 = FACE_OUTER_BOUND ( 'NONE', #15, .T. ) ;
#70 = CC_DESIGN_DATE_AND_TIME_ASSIGNMENT ( #158, #71, ( #170 ) ) ;
#71 = DATE_TIME_ROLE ( 'creation_date' ) ;
#72 = PLANE ( 'NONE',  #216 ) ;
#73 = DATE_AND_TIME ( #197, #157 ) ;
#74 = CIRCLE ( 'NONE', #60, 0.4181483474218596896 ) ;
#75 = CIRCLE ( 'NONE', #36, 1.499999999999993783 ) ;
#76 = ORIENTED_EDGE ( 'NONE', *, *, #127, .T. ) ;
#77 = APPROVAL_PERSON_ORGANIZATION ( #218, #224, #162 ) ;
#78 = CARTESIAN_POINT ( 'NONE',  ( 2.812445277580555161E-14, -1.499999999999992895, 8.055163423879074358 ) ) ;
#79 = DIRECTION ( 'NONE',  ( 4.275831445896958607E-31, 1.000000000000000000, 1.224646799147353207E-16 ) ) ;
#80 = CC_DESIGN_PERSON_AND_ORGANIZATION_ASSIGNMENT ( #131, #171, ( #170 ) ) ;
#81 = DIRECTION ( 'NONE',  ( -4.275831445896958607E-31, -1.000000000000000000, -1.224646799147353207E-16 ) ) ;
#82 = CARTESIAN_POINT ( 'NONE',  ( 1.222018468595096359E-14, -0.3500000000000004774, 3.499999999999999112 ) ) ;
#83 = COORDINATED_UNIVERSAL_TIME_OFFSET ( 1, 0, .AHEAD. ) ;
#84 = DIRECTION ( 'NONE',  ( -4.275831445896958607E-31, -1.000000000000000000, -1.224646799147353207E-16 ) ) ;
#85 = PERSON_AND_ORGANIZATION ( #52, #110 ) ;
#86 = FACE_OUTER_BOUND ( 'NONE', #54, .T. ) ;
#87 = PERSON_AND_ORGANIZATION_ROLE ( 'design_supplier' ) ;
#88 = EDGE_LOOP ( 'NONE', ( #13 ) ) ;
#89 =( GEOMETRIC_REPRESENTATION_CONTEXT ( 3 ) GLOBAL_UNCERTAINTY_ASSIGNED_CONTEXT ( ( #12 ) ) GLOBAL_UNIT_ASSIGNED_CONTEXT ( ( #193, #18, #230 ) ) REPRESENTATION_CONTEXT ( 'NONE', 'WORKASPACE' ) );
#90 = COORDINATED_UNIVERSAL_TIME_OFFSET ( 1, 0, .AHEAD. ) ;
#91 = APPROVAL ( #174, 'UNSPECIFIED' ) ;
#92 = ORIENTED_EDGE ( 'NONE', *, *, #155, .F. ) ;
#93 = PERSON_AND_ORGANIZATION ( #52, #110 ) ;
#94 = EDGE_LOOP ( 'NONE', ( #92 ) ) ;
#95 = EDGE_CURVE ( 'NONE', #38, #38, #1, .T. ) ;
#96 = AXIS2_PLACEMENT_3D ( 'NONE', #11, #104, #81 ) ;
#97 = CARTESIAN_POINT ( 'NONE',  ( 1.326762908760390423E-13, -4.653657836759941941E-15, 38.00000000000000000 ) ) ;
#98 = AXIS2_PLACEMENT_3D ( 'NONE', #97, #2, #22 ) ;
#99 = CALENDAR_DATE ( 2021, 1, 11 ) ;
#100 = DIRECTION ( 'NONE',  ( -3.491481338843133355E-15, 1.224646799147353207E-16, -1.000000000000000000 ) ) ;
#101 = FACE_OUTER_BOUND ( 'NONE', #32, .T. ) ;
#102 = CARTESIAN_POINT ( 'NONE',  ( -1.282754905350004587E-30, 4.499298539707956128E-32, -3.673956068672651857E-16 ) ) ;
#103 = EDGE_CURVE ( 'NONE', #114, #114, #148, .T. ) ;
#104 = DIRECTION ( 'NONE',  ( 3.491481338843133355E-15, -1.224646799147353207E-16, 1.000000000000000000 ) ) ;
#105 = APPROVAL_ROLE ( '' ) ;
#106 = DIRECTION ( 'NONE',  ( 0.0000000000000000000, 1.000000000000000000, 0.0000000000000000000 ) ) ;
#107 = ORIENTED_EDGE ( 'NONE', *, *, #127, .F. ) ;
#108 = CC_DESIGN_PERSON_AND_ORGANIZATION_ASSIGNMENT ( #135, #211, ( #68 ) ) ;
#109 = AXIS2_PLACEMENT_3D ( 'NONE', #141, #118, #23 ) ;
#110 = ORGANIZATION ( 'UNSPECIFIED', 'UNSPECIFIED', '' ) ;
#111 = EDGE_LOOP ( 'NONE', ( #76 ) ) ;
#112 = ADVANCED_FACE ( 'NONE', ( #101, #86 ), #217, .T. ) ;
#113 = VERTEX_POINT ( 'NONE', #226 ) ;
#114 = VERTEX_POINT ( 'NONE', #78 ) ;
#115 = APPROVAL ( #215, 'UNSPECIFIED' ) ;
#116 = DIRECTION ( 'NONE',  ( 1.000000000000000000, 0.0000000000000000000, 0.0000000000000000000 ) ) ;
#117 = AXIS2_PLACEMENT_3D ( 'NONE', #184, #35, #25 ) ;
#118 = DIRECTION ( 'NONE',  ( 3.491481338843133355E-15, -1.219242935835426903E-16, 1.000000000000000000 ) ) ;
#119 = PLANE ( 'NONE',  #129 ) ;
#120 = CC_DESIGN_DATE_AND_TIME_ASSIGNMENT ( #73, #233, ( #50 ) ) ;
#121 = DIRECTION ( 'NONE',  ( 0.0000000000000000000, -1.000000000000000000, 0.0000000000000000000 ) ) ;
#122 = DATE_AND_TIME ( #241, #200 ) ;
#123 = DIRECTION ( 'NONE',  ( 0.0000000000000000000, -1.000000000000000000, 0.0000000000000000000 ) ) ;
#124 = EDGE_CURVE ( 'NONE', #113, #113, #26, .T. ) ;
#125 = PERSON_AND_ORGANIZATION_ROLE ( 'classification_officer' ) ;
#126 = EDGE_LOOP ( 'NONE', ( #201 ) ) ;
#127 = EDGE_CURVE ( 'NONE', #63, #63, #166, .T. ) ;
#128 = CARTESIAN_POINT ( 'NONE',  ( 1.326762908760390423E-13, 1.199999999999989297, 38.00000000000000000 ) ) ;
#129 = AXIS2_PLACEMENT_3D ( 'NONE', #198, #234, #79 ) ;
#130 = CC_DESIGN_APPROVAL ( #224, ( #209 ) ) ;
#131 = PERSON_AND_ORGANIZATION ( #52, #110 ) ;
#132 = CC_DESIGN_PERSON_AND_ORGANIZATION_ASSIGNMENT ( #93, #182, ( #209 ) ) ;
#133 = VERTEX_POINT ( 'NONE', #16 ) ;
#134 = FACE_OUTER_BOUND ( 'NONE', #145, .T. ) ;
#135 = PERSON_AND_ORGANIZATION ( #52, #110 ) ;
#136 = CARTESIAN_POINT ( 'NONE',  ( 2.812445277580555161E-14, -9.821201101564473405E-16, 8.055163423879074358 ) ) ;
#137 = CC_DESIGN_APPROVAL ( #91, ( #170 ) ) ;
#138 = ADVANCED_FACE ( 'NONE', ( #6 ), #65, .F. ) ;
#139 = DIRECTION ( 'NONE',  ( 0.0000000000000000000, 0.0000000000000000000, 1.000000000000000000 ) ) ;
#140 = CARTESIAN_POINT ( 'NONE',  ( 1.222018468595096517E-14, 1.124819836996384858E-32, 3.499999999999999556 ) ) ;
#141 = CARTESIAN_POINT ( 'NONE',  ( 1.222018468595096359E-14, -4.336808689942017736E-16, 3.499999999999999112 ) ) ;
#142 = PERSON_AND_ORGANIZATION ( #52, #110 ) ;
#143 = CARTESIAN_POINT ( 'NONE',  ( 0.0000000000000000000, 0.0000000000000000000, 0.0000000000000000000 ) ) ;
#144 = PRODUCT_RELATED_PRODUCT_CATEGORY ( 'detail', '', ( #68 ) ) ;
#145 = EDGE_LOOP ( 'NONE', ( #181 ) ) ;
#146 = EDGE_LOOP ( 'NONE', ( #33 ) ) ;
#147 = EDGE_CURVE ( 'NONE', #133, #133, #74, .T. ) ;
#148 = CIRCLE ( 'NONE', #176, 1.499999999999991784 ) ;
#149 = EDGE_LOOP ( 'NONE', ( #31 ) ) ;
#150 = AXIS2_PLACEMENT_3D ( 'NONE', #192, #161, #159 ) ;
#151 = ADVANCED_FACE ( 'NONE', ( #66 ), #72, .T. ) ;
#152 = APPROVAL_PERSON_ORGANIZATION ( #168, #91, #20 ) ;
#153 = DIRECTION ( 'NONE',  ( 3.491481338843133355E-15, -1.219242935835426903E-16, 1.000000000000000000 ) ) ;
#154 = APPLICATION_PROTOCOL_DEFINITION ( 'international standard', 'config_control_design', 1994, #46 ) ;
#155 = EDGE_CURVE ( 'NONE', #3, #3, #75, .T. ) ;
#156 = DIRECTION ( 'NONE',  ( -3.491481338843133355E-15, 1.219242935835426903E-16, -1.000000000000000000 ) ) ;
#157 = LOCAL_TIME ( 10, 16, 35.00000000000000000, #90 ) ;
#158 = DATE_AND_TIME ( #42, #203 ) ;
#159 = DIRECTION ( 'NONE',  ( -4.256963957985708889E-31, -1.000000000000000000, -1.219242935835427149E-16 ) ) ;
#160 = COORDINATED_UNIVERSAL_TIME_OFFSET ( 1, 0, .AHEAD. ) ;
#161 = DIRECTION ( 'NONE',  ( 3.491481338843133355E-15, -1.219242935835426903E-16, 1.000000000000000000 ) ) ;
#162 = APPROVAL_ROLE ( '' ) ;
#163 = ORIENTED_EDGE ( 'NONE', *, *, #147, .T. ) ;
#164 = EDGE_LOOP ( 'NONE', ( #223 ) ) ;
#165 = CC_DESIGN_PERSON_AND_ORGANIZATION_ASSIGNMENT ( #10, #87, ( #209 ) ) ;
#166 = CIRCLE ( 'NONE', #199, 0.3500000000000000333 ) ;
#167 = APPROVAL_PERSON_ORGANIZATION ( #142, #115, #105 ) ;
#168 = PERSON_AND_ORGANIZATION ( #52, #110 ) ;
#169 = AXIS2_PLACEMENT_3D ( 'NONE', #212, #43, #121 ) ;
#170 = PRODUCT_DEFINITION ( 'UNKNOWN', '', #209, #186 ) ;
#171 = PERSON_AND_ORGANIZATION_ROLE ( 'creator' ) ;
#172 = FACE_OUTER_BOUND ( 'NONE', #149, .T. ) ;
#173 = ADVANCED_BREP_SHAPE_REPRESENTATION ( '48854', ( #56, #57, #185 ), #89 ) ;
#174 = APPROVAL_STATUS ( 'not_yet_approved' ) ;
#175 = FACE_BOUND ( 'NONE', #242, .T. ) ;
#176 = AXIS2_PLACEMENT_3D ( 'NONE', #136, #156, #28 ) ;
#177 = CC_DESIGN_APPROVAL ( #115, ( #50 ) ) ;
#178 = ADVANCED_FACE ( 'NONE', ( #4, #196 ), #30, .T. ) ;
#179 = SHAPE_DEFINITION_REPRESENTATION ( #206, #173 ) ;
#180 = DIRECTION ( 'NONE',  ( 0.0000000000000000000, -1.000000000000000000, 0.0000000000000000000 ) ) ;
#181 = ORIENTED_EDGE ( 'NONE', *, *, #155, .T. ) ;
#182 = PERSON_AND_ORGANIZATION_ROLE ( 'creator' ) ;
#183 = ADVANCED_FACE ( 'NONE', ( #134, #39 ), #194, .T. ) ;
#184 = CARTESIAN_POINT ( 'NONE',  ( 1.222018468595096359E-14, -4.267350275423993666E-16, 3.499999999999999112 ) ) ;
#185 = AXIS2_PLACEMENT_3D ( 'NONE', #225, #139, #116 ) ;
#186 = DESIGN_CONTEXT ( 'detailed design', #46, 'design' ) ;
#187 = CARTESIAN_POINT ( 'NONE',  ( 1.316288464743861212E-13, 1.499999999999989120, 37.69999999999999574 ) ) ;
#188 = DIRECTION ( 'NONE',  ( 3.491481338843133355E-15, -1.224646799147353207E-16, 1.000000000000000000 ) ) ;
#189 = CIRCLE ( 'NONE', #117, 0.3500000000000000333 ) ;
#190 = DIRECTION ( 'NONE',  ( -3.491481338843133355E-15, 1.224646799147353207E-16, -1.000000000000000000 ) ) ;
#191 = DIRECTION ( 'NONE',  ( -4.275831445896958607E-31, -1.000000000000000000, -1.224646799147353207E-16 ) ) ;
#192 = CARTESIAN_POINT ( 'NONE',  ( 0.0000000000000000000, 0.0000000000000000000, 0.0000000000000000000 ) ) ;
#193 =( LENGTH_UNIT ( ) NAMED_UNIT ( * ) SI_UNIT ( .MILLI., .METRE. ) );
#194 = CYLINDRICAL_SURFACE ( 'NONE', #61, 1.499999999999991784 ) ;
#195 = CC_DESIGN_PERSON_AND_ORGANIZATION_ASSIGNMENT ( #85, #125, ( #50 ) ) ;
#196 = FACE_OUTER_BOUND ( 'NONE', #164, .T. ) ;
#197 = CALENDAR_DATE ( 2021, 1, 11 ) ;
#198 = CARTESIAN_POINT ( 'NONE',  ( 1.326762908760390423E-13, 8.998558695971030697E-33, 38.00000000000000000 ) ) ;
#199 = AXIS2_PLACEMENT_3D ( 'NONE', #48, #236, #180 ) ;
#200 = LOCAL_TIME ( 10, 16, 35.00000000000000000, #160 ) ;
#201 = ORIENTED_EDGE ( 'NONE', *, *, #147, .F. ) ;
#202 = AXIS2_PLACEMENT_3D ( 'NONE', #207, #100, #106 ) ;
#203 = LOCAL_TIME ( 10, 16, 35.00000000000000000, #228 ) ;
#204 = ADVANCED_FACE ( 'NONE', ( #208, #175 ), #231, .T. ) ;
#205 = CARTESIAN_POINT ( 'NONE',  ( 1.222018468595096359E-14, -0.3500000000000004774, 3.499999999999999112 ) ) ;
#206 = PRODUCT_DEFINITION_SHAPE ( 'NONE', 'NONE',  #170 ) ;
#207 = CARTESIAN_POINT ( 'NONE',  ( 1.326762908760390423E-13, -4.653657836759941941E-15, 38.00000000000000000 ) ) ;
#208 = FACE_OUTER_BOUND ( 'NONE', #94, .T. ) ;
#209 = PRODUCT_DEFINITION_FORMATION_WITH_SPECIFIED_SOURCE ( 'ANY', '', #68, .NOT_KNOWN. ) ;
#210 = CARTESIAN_POINT ( 'NONE',  ( 1.402750841817621366E-14, -4.898476860225814438E-16, 4.017638090205026380 ) ) ;
#211 = PERSON_AND_ORGANIZATION_ROLE ( 'design_owner' ) ;
#212 = CARTESIAN_POINT ( 'NONE',  ( 4.115483852604709203E-14, -1.437147768487185171E-15, 11.78721423144805414 ) ) ;
#213 = COORDINATED_UNIVERSAL_TIME_OFFSET ( 1, 0, .AHEAD. ) ;
#214 = DIRECTION ( 'NONE',  ( -3.491481338843133355E-15, 1.224646799147353207E-16, -1.000000000000000000 ) ) ;
#215 = APPROVAL_STATUS ( 'not_yet_approved' ) ;
#216 = AXIS2_PLACEMENT_3D ( 'NONE', #140, #227, #84 ) ;
#217 = CYLINDRICAL_SURFACE ( 'NONE', #150, 0.3500000000000000333 ) ;
#218 = PERSON_AND_ORGANIZATION ( #52, #110 ) ;
#219 = ADVANCED_FACE ( 'NONE', ( #5 ), #41, .F. ) ;
#220 = SECURITY_CLASSIFICATION_LEVEL ( 'unclassified' ) ;
#221 = EDGE_LOOP ( 'NONE', ( #163 ) ) ;
#222 = ORIENTED_EDGE ( 'NONE', *, *, #103, .F. ) ;
#223 = ORIENTED_EDGE ( 'NONE', *, *, #103, .T. ) ;
#224 = APPROVAL ( #27, 'UNSPECIFIED' ) ;
#225 = CARTESIAN_POINT ( 'NONE',  ( 0.0000000000000000000, 0.0000000000000000000, 0.0000000000000000000 ) ) ;
#226 = CARTESIAN_POINT ( 'NONE',  ( -3.504872004643547167E-30, -0.3500000000000000333, -1.003835239115111675E-15 ) ) ;
#227 = DIRECTION ( 'NONE',  ( 3.491481338843133355E-15, -1.224646799147353207E-16, 1.000000000000000000 ) ) ;
#228 = COORDINATED_UNIVERSAL_TIME_OFFSET ( 1, 0, .AHEAD. ) ;
#229 = CARTESIAN_POINT ( 'NONE',  ( -3.355878266114047833E-30, 1.171889657253305952E-31, -9.611617363608717435E-16 ) ) ;
#230 =( NAMED_UNIT ( * ) SI_UNIT ( $, .STERADIAN. ) SOLID_ANGLE_UNIT ( ) );
#231 = CONICAL_SURFACE ( 'NONE', #98, 1.199999999999993738, 0.7853981633974453924 ) ;
#232 = DIRECTION ( 'NONE',  ( 3.491481338843133355E-15, -1.219242935835426903E-16, 1.000000000000000000 ) ) ;
#233 = DATE_TIME_ROLE ( 'classification_date' ) ;
#234 = DIRECTION ( 'NONE',  ( -3.491481338843133355E-15, 1.224646799147353207E-16, -1.000000000000000000 ) ) ;
#235 = DATE_AND_TIME ( #67, #238 ) ;
#236 = DIRECTION ( 'NONE',  ( 3.491481338843133355E-15, -1.219242935835426903E-16, 1.000000000000000000 ) ) ;
#237 = APPROVAL_DATE_TIME ( #122, #224 ) ;
#238 = LOCAL_TIME ( 10, 16, 35.00000000000000000, #213 ) ;
#239 = ORIENTED_EDGE ( 'NONE', *, *, #17, .T. ) ;
#240 = ORIENTED_EDGE ( 'NONE', *, *, #124, .T. ) ;
#241 = CALENDAR_DATE ( 2021, 1, 11 ) ;
#242 = EDGE_LOOP ( 'NONE', ( #53 ) ) ;
#243 = APPLICATION_CONTEXT ( 'configuration controlled 3d designs of mechanical parts and assemblies' ) ;
ENDSEC;
END-ISO-10303-21;
