ISO-10303-21;
HEADER;
FILE_DESCRIPTION (( 'STEP AP203' ),
    '1' );
FILE_NAME ('48853.step',
    '2021-11-01T09:16:34',
    ( '' ),
    ( '' ),
    'SwSTEP 2.0',
    'SolidWorks 2019',
    '' );
FILE_SCHEMA (( 'CONFIG_CONTROL_DESIGN' ));
ENDSEC;

DATA;
#1 = FACE_OUTER_BOUND ( 'NONE', #140, .T. ) ;
#2 = DIRECTION ( 'NONE',  ( 3.491481338843133355E-15, -1.219242935835426903E-16, 1.000000000000000000 ) ) ;
#3 = CONICAL_SURFACE ( 'NONE', #60, 2.499999999999992895, 0.2617993877991429130 ) ;
#4 = AXIS2_PLACEMENT_3D ( 'NONE', #180, #201, #205 ) ;
#5 = FACE_OUTER_BOUND ( 'NONE', #63, .T. ) ;
#6 = APPROVAL_DATE_TIME ( #236, #158 ) ;
#7 = CALENDAR_DATE ( 2021, 1, 11 ) ;
#8 = AXIS2_PLACEMENT_3D ( 'NONE', #37, #235, #128 ) ;
#9 = PERSON_AND_ORGANIZATION ( #135, #199 ) ;
#10 = DESIGN_CONTEXT ( 'detailed design', #161, 'design' ) ;
#11 = DATE_AND_TIME ( #167, #73 ) ;
#12 = AXIS2_PLACEMENT_3D ( 'NONE', #123, #127, #214 ) ;
#13 = APPROVAL_STATUS ( 'not_yet_approved' ) ;
#14 = AXIS2_PLACEMENT_3D ( 'NONE', #152, #120, #24 ) ;
#15 = CC_DESIGN_PERSON_AND_ORGANIZATION_ASSIGNMENT ( #117, #96, ( #203 ) ) ;
#16 = EDGE_LOOP ( 'NONE', ( #168 ) ) ;
#17 = ORIENTED_EDGE ( 'NONE', *, *, #92, .T. ) ;
#18 = DIRECTION ( 'NONE',  ( 4.275831445896958607E-31, 1.000000000000000000, 1.224646799147353207E-16 ) ) ;
#19 = AXIS2_PLACEMENT_3D ( 'NONE', #50, #125, #211 ) ;
#20 = APPROVAL ( #130, 'UNSPECIFIED' ) ;
#21 = DIRECTION ( 'NONE',  ( -3.491481338843133355E-15, 1.224646799147353207E-16, -1.000000000000000000 ) ) ;
#22 = CC_DESIGN_APPROVAL ( #158, ( #108 ) ) ;
#23 = FACE_BOUND ( 'NONE', #36, .T. ) ;
#24 = DIRECTION ( 'NONE',  ( 0.0000000000000000000, 1.000000000000000000, 0.0000000000000000000 ) ) ;
#25 = DIRECTION ( 'NONE',  ( -3.491481338843133355E-15, 1.219242935835426903E-16, -1.000000000000000000 ) ) ;
#26 = DATE_AND_TIME ( #7, #164 ) ;
#27 = PERSON_AND_ORGANIZATION ( #135, #199 ) ;
#28 = APPROVAL_ROLE ( '' ) ;
#29 = CALENDAR_DATE ( 2021, 1, 11 ) ;
#30 = COORDINATED_UNIVERSAL_TIME_OFFSET ( 1, 0, .AHEAD. ) ;
#31 = PERSON_AND_ORGANIZATION ( #135, #199 ) ;
#32 = CARTESIAN_POINT ( 'NONE',  ( 0.0000000000000000000, 0.0000000000000000000, 0.0000000000000000000 ) ) ;
#33 = EDGE_LOOP ( 'NONE', ( #48 ) ) ;
#34 = EDGE_CURVE ( 'NONE', #42, #42, #217, .T. ) ;
#35 = FACE_OUTER_BOUND ( 'NONE', #242, .T. ) ;
#36 = EDGE_LOOP ( 'NONE', ( #80 ) ) ;
#37 = CARTESIAN_POINT ( 'NONE',  ( 1.047444401652939849E-14, -3.657728807506280215E-16, 2.999999999999999556 ) ) ;
#38 = ORIENTED_EDGE ( 'NONE', *, *, #95, .T. ) ;
#39 = DIRECTION ( 'NONE',  ( 3.491481338843133355E-15, -1.224646799147353207E-16, 1.000000000000000000 ) ) ;
#40 = PLANE ( 'NONE',  #119 ) ;
#41 = COORDINATED_UNIVERSAL_TIME_OFFSET ( 1, 0, .AHEAD. ) ;
#42 = VERTEX_POINT ( 'NONE', #134 ) ;
#43 =( NAMED_UNIT ( * ) SI_UNIT ( $, .STERADIAN. ) SOLID_ANGLE_UNIT ( ) );
#44 = CARTESIAN_POINT ( 'NONE',  ( 1.228176774875465014E-14, -0.3681483474218599228, 3.517638090205027268 ) ) ;
#45 = SECURITY_CLASSIFICATION_LEVEL ( 'unclassified' ) ;
#46 = ORIENTED_EDGE ( 'NONE', *, *, #92, .F. ) ;
#47 = PLANE ( 'NONE',  #188 ) ;
#48 = ORIENTED_EDGE ( 'NONE', *, *, #212, .F. ) ;
#49 = CARTESIAN_POINT ( 'NONE',  ( -3.334593446324119757E-30, 1.164456890570383054E-31, -9.550655216816948358E-16 ) ) ;
#50 = CARTESIAN_POINT ( 'NONE',  ( 1.047444401652939849E-14, -4.336808689942017736E-16, 2.999999999999999556 ) ) ;
#51 = AXIS2_PLACEMENT_3D ( 'NONE', #49, #2, #148 ) ;
#52 = FACE_OUTER_BOUND ( 'NONE', #101, .T. ) ;
#53 = FACE_OUTER_BOUND ( 'NONE', #99, .T. ) ;
#54 = CARTESIAN_POINT ( 'NONE',  ( 0.0000000000000000000, 0.0000000000000000000, 0.0000000000000000000 ) ) ;
#55 = COORDINATED_UNIVERSAL_TIME_OFFSET ( 1, 0, .AHEAD. ) ;
#56 = CC_DESIGN_PERSON_AND_ORGANIZATION_ASSIGNMENT ( #27, #238, ( #57 ) ) ;
#57 = PRODUCT ( '48853', '48853', '', ( #157 ) ) ;
#58 = DIRECTION ( 'NONE',  ( 0.0000000000000000000, 1.000000000000000000, 0.0000000000000000000 ) ) ;
#59 = ADVANCED_BREP_SHAPE_REPRESENTATION ( '48853', ( #112, #206, #4 ), #87 ) ;
#60 = AXIS2_PLACEMENT_3D ( 'NONE', #66, #84, #229 ) ;
#61 = ADVANCED_FACE ( 'NONE', ( #53 ), #40, .T. ) ;
#62 = CC_DESIGN_DATE_AND_TIME_ASSIGNMENT ( #11, #75, ( #103 ) ) ;
#63 = EDGE_LOOP ( 'NONE', ( #65 ) ) ;
#64 = AXIS2_PLACEMENT_3D ( 'NONE', #32, #21, #81 ) ;
#65 = ORIENTED_EDGE ( 'NONE', *, *, #240, .F. ) ;
#66 = CARTESIAN_POINT ( 'NONE',  ( 4.006061714413759543E-14, -1.398937004611950600E-15, 11.47381677182650250 ) ) ;
#67 = EDGE_LOOP ( 'NONE', ( #143 ) ) ;
#68 = CARTESIAN_POINT ( 'NONE',  ( 1.326762908760390423E-13, -4.653657836759941941E-15, 38.00000000000000000 ) ) ;
#69 = CC_DESIGN_APPROVAL ( #114, ( #103 ) ) ;
#70 = DIRECTION ( 'NONE',  ( -3.491481338843133355E-15, 1.224646799147353207E-16, -1.000000000000000000 ) ) ;
#71 = APPROVAL_DATE_TIME ( #26, #20 ) ;
#72 = APPLICATION_PROTOCOL_DEFINITION ( 'international standard', 'config_control_design', 1994, #153 ) ;
#73 = LOCAL_TIME ( 10, 16, 34.00000000000000000, #30 ) ;
#74 = APPROVAL_STATUS ( 'not_yet_approved' ) ;
#75 = DATE_TIME_ROLE ( 'classification_date' ) ;
#76 = LOCAL_TIME ( 10, 16, 34.00000000000000000, #187 ) ;
#77 = PERSON_AND_ORGANIZATION ( #135, #199 ) ;
#78 = CIRCLE ( 'NONE', #51, 0.2999999999999999334 ) ;
#79 = CC_DESIGN_SECURITY_CLASSIFICATION ( #103, ( #203 ) ) ;
#80 = ORIENTED_EDGE ( 'NONE', *, *, #145, .T. ) ;
#81 = DIRECTION ( 'NONE',  ( 4.275831445896958607E-31, 1.000000000000000000, 1.224646799147353207E-16 ) ) ;
#82 = AXIS2_PLACEMENT_3D ( 'NONE', #88, #70, #18 ) ;
#83 = CC_DESIGN_APPROVAL ( #20, ( #203 ) ) ;
#84 = DIRECTION ( 'NONE',  ( 3.491481338843133355E-15, -1.219242935835426903E-16, 1.000000000000000000 ) ) ;
#85 = CYLINDRICAL_SURFACE ( 'NONE', #113, 0.2999999999999999334 ) ;
#86 = FACE_OUTER_BOUND ( 'NONE', #33, .T. ) ;
#87 =( GEOMETRIC_REPRESENTATION_CONTEXT ( 3 ) GLOBAL_UNCERTAINTY_ASSIGNED_CONTEXT ( ( #116 ) ) GLOBAL_UNIT_ASSIGNED_CONTEXT ( ( #159, #176, #43 ) ) REPRESENTATION_CONTEXT ( 'NONE', 'WORKASPACE' ) );
#88 = CARTESIAN_POINT ( 'NONE',  ( 1.326762908760390423E-13, 8.998558695971030697E-33, 38.00000000000000000 ) ) ;
#89 = DATE_AND_TIME ( #110, #225 ) ;
#90 = PERSON_AND_ORGANIZATION ( #135, #199 ) ;
#91 = AXIS2_PLACEMENT_3D ( 'NONE', #98, #171, #192 ) ;
#92 = EDGE_CURVE ( 'NONE', #218, #218, #78, .T. ) ;
#93 = CARTESIAN_POINT ( 'NONE',  ( 1.316288464743861212E-13, 1.499999999999989120, 37.69999999999999574 ) ) ;
#94 = DATE_AND_TIME ( #241, #76 ) ;
#95 = EDGE_CURVE ( 'NONE', #133, #133, #142, .T. ) ;
#96 = PERSON_AND_ORGANIZATION_ROLE ( 'design_supplier' ) ;
#97 = ORIENTED_EDGE ( 'NONE', *, *, #104, .T. ) ;
#98 = CARTESIAN_POINT ( 'NONE',  ( 1.316288464743861212E-13, -4.616918432785521081E-15, 37.69999999999999574 ) ) ;
#99 = EDGE_LOOP ( 'NONE', ( #189 ) ) ;
#100 = FACE_OUTER_BOUND ( 'NONE', #16, .T. ) ;
#101 = EDGE_LOOP ( 'NONE', ( #121 ) ) ;
#102 = CLOSED_SHELL ( 'NONE', ( #181, #178, #118, #197, #231, #129 ) ) ;
#103 = SECURITY_CLASSIFICATION ( '', '', #45 ) ;
#104 = EDGE_CURVE ( 'NONE', #222, #222, #220, .T. ) ;
#105 = DIRECTION ( 'NONE',  ( -4.275831445896958607E-31, -1.000000000000000000, -1.224646799147353207E-16 ) ) ;
#106 = CARTESIAN_POINT ( 'NONE',  ( 1.047444401652940007E-14, 1.124819836996384858E-32, 3.000000000000000000 ) ) ;
#107 = PLANE ( 'NONE',  #194 ) ;
#108 = PRODUCT_DEFINITION ( 'UNKNOWN', '', #203, #10 ) ;
#109 = CLOSED_SHELL ( 'NONE', ( #61, #124, #166 ) ) ;
#110 = CALENDAR_DATE ( 2021, 1, 11 ) ;
#111 = CARTESIAN_POINT ( 'NONE',  ( -3.462302365063691015E-30, -0.2999999999999999334, -9.916428097567574654E-16 ) ) ;
#112 = MANIFOLD_SOLID_BREP ( 'Corps-Déplacer/Copier1[1]', #102 ) ;
#113 = AXIS2_PLACEMENT_3D ( 'NONE', #54, #126, #147 ) ;
#114 = APPROVAL ( #13, 'UNSPECIFIED' ) ;
#115 = COORDINATED_UNIVERSAL_TIME_OFFSET ( 1, 0, .AHEAD. ) ;
#116 = UNCERTAINTY_MEASURE_WITH_UNIT (LENGTH_MEASURE( 1.000000000000000082E-05 ), #159, 'distance_accuracy_value', 'NONE');
#117 = PERSON_AND_ORGANIZATION ( #135, #199 ) ;
#118 = ADVANCED_FACE ( 'NONE', ( #5 ), #228, .F. ) ;
#119 = AXIS2_PLACEMENT_3D ( 'NONE', #150, #234, #226 ) ;
#120 = DIRECTION ( 'NONE',  ( -3.491481338843133355E-15, 1.224646799147353207E-16, -1.000000000000000000 ) ) ;
#121 = ORIENTED_EDGE ( 'NONE', *, *, #34, .F. ) ;
#122 = FACE_OUTER_BOUND ( 'NONE', #169, .T. ) ;
#123 = CARTESIAN_POINT ( 'NONE',  ( 1.047444401652939849E-14, -3.657728807506280215E-16, 2.999999999999999556 ) ) ;
#124 = ADVANCED_FACE ( 'NONE', ( #122, #52 ), #85, .T. ) ;
#125 = DIRECTION ( 'NONE',  ( 3.491481338843133355E-15, -1.219242935835426903E-16, 1.000000000000000000 ) ) ;
#126 = DIRECTION ( 'NONE',  ( 3.491481338843133355E-15, -1.219242935835426903E-16, 1.000000000000000000 ) ) ;
#127 = DIRECTION ( 'NONE',  ( 3.491481338843133355E-15, -1.219242935835426903E-16, 1.000000000000000000 ) ) ;
#128 = DIRECTION ( 'NONE',  ( 0.0000000000000000000, -1.000000000000000000, 0.0000000000000000000 ) ) ;
#129 = ADVANCED_FACE ( 'NONE', ( #100 ), #47, .F. ) ;
#130 = APPROVAL_STATUS ( 'not_yet_approved' ) ;
#131 = CIRCLE ( 'NONE', #91, 1.499999999999993783 ) ;
#132 = PERSON_AND_ORGANIZATION_ROLE ( 'creator' ) ;
#133 = VERTEX_POINT ( 'NONE', #154 ) ;
#134 = CARTESIAN_POINT ( 'NONE',  ( 1.047444401652939849E-14, -0.3000000000000002665, 2.999999999999999556 ) ) ;
#135 = PERSON ( 'UNSPECIFIED', 'UNSPECIFIED', 'UNSPECIFIED', ('UNSPECIFIED'), ('UNSPECIFIED'), ('UNSPECIFIED') ) ;
#136 = CC_DESIGN_DATE_AND_TIME_ASSIGNMENT ( #89, #177, ( #108 ) ) ;
#137 = CIRCLE ( 'NONE', #202, 0.3681483474218595342 ) ;
#138 = APPROVAL_PERSON_ORGANIZATION ( #200, #20, #216 ) ;
#139 = CC_DESIGN_PERSON_AND_ORGANIZATION_ASSIGNMENT ( #155, #132, ( #203 ) ) ;
#140 = EDGE_LOOP ( 'NONE', ( #38 ) ) ;
#141 = CARTESIAN_POINT ( 'NONE',  ( 1.228176774875465014E-14, -4.288855392308101480E-16, 3.517638090205027268 ) ) ;
#142 = CIRCLE ( 'NONE', #8, 0.2999999999999998779 ) ;
#143 = ORIENTED_EDGE ( 'NONE', *, *, #145, .F. ) ;
#144 = CARTESIAN_POINT ( 'NONE',  ( 2.703023139389606447E-14, -9.439093462812129658E-16, 7.741765964257525390 ) ) ;
#145 = EDGE_CURVE ( 'NONE', #182, #182, #137, .T. ) ;
#146 = ORIENTED_EDGE ( 'NONE', *, *, #212, .T. ) ;
#147 = DIRECTION ( 'NONE',  ( -4.256963957985708889E-31, -1.000000000000000000, -1.219242935835426903E-16 ) ) ;
#148 = DIRECTION ( 'NONE',  ( -4.256963957985718523E-31, -1.000000000000000000, -1.219242935835426903E-16 ) ) ;
#149 = TOROIDAL_SURFACE ( 'NONE', #19, 2.299999999999999822, 2.000000000000000000 ) ;
#150 = CARTESIAN_POINT ( 'NONE',  ( 1.047444401652940007E-14, 1.124819836996384858E-32, 3.000000000000000000 ) ) ;
#151 = PRODUCT_DEFINITION_SHAPE ( 'NONE', 'NONE',  #108 ) ;
#152 = CARTESIAN_POINT ( 'NONE',  ( 1.326762908760390423E-13, -4.653657836759941941E-15, 38.00000000000000000 ) ) ;
#153 = APPLICATION_CONTEXT ( 'configuration controlled 3d designs of mechanical parts and assemblies' ) ;
#154 = CARTESIAN_POINT ( 'NONE',  ( 1.047444401652939849E-14, -0.3000000000000002665, 2.999999999999999556 ) ) ;
#155 = PERSON_AND_ORGANIZATION ( #135, #199 ) ;
#156 = CIRCLE ( 'NONE', #224, 1.199999999999993738 ) ;
#157 = MECHANICAL_CONTEXT ( 'NONE', #153, 'mechanical' ) ;
#158 = APPROVAL ( #74, 'UNSPECIFIED' ) ;
#159 =( LENGTH_UNIT ( ) NAMED_UNIT ( * ) SI_UNIT ( .MILLI., .METRE. ) );
#160 = VERTEX_POINT ( 'NONE', #93 ) ;
#161 = APPLICATION_CONTEXT ( 'configuration controlled 3d designs of mechanical parts and assemblies' ) ;
#162 = SHAPE_DEFINITION_REPRESENTATION ( #151, #59 ) ;
#163 = APPROVAL_DATE_TIME ( #94, #114 ) ;
#164 = LOCAL_TIME ( 10, 16, 34.00000000000000000, #41 ) ;
#165 = LOCAL_TIME ( 10, 16, 34.00000000000000000, #115 ) ;
#166 = ADVANCED_FACE ( 'NONE', ( #213 ), #107, .F. ) ;
#167 = CALENDAR_DATE ( 2021, 1, 11 ) ;
#168 = ORIENTED_EDGE ( 'NONE', *, *, #95, .F. ) ;
#169 = EDGE_LOOP ( 'NONE', ( #17 ) ) ;
#170 = FACE_OUTER_BOUND ( 'NONE', #67, .T. ) ;
#171 = DIRECTION ( 'NONE',  ( -3.491481338843133355E-15, 1.224646799147353207E-16, -1.000000000000000000 ) ) ;
#172 = ORIENTED_EDGE ( 'NONE', *, *, #104, .F. ) ;
#173 = FACE_OUTER_BOUND ( 'NONE', #190, .T. ) ;
#174 = ORIENTED_EDGE ( 'NONE', *, *, #240, .T. ) ;
#175 = DIRECTION ( 'NONE',  ( 3.491481338843133355E-15, -1.219242935835426903E-16, 1.000000000000000000 ) ) ;
#176 =( NAMED_UNIT ( * ) PLANE_ANGLE_UNIT ( ) SI_UNIT ( $, .RADIAN. ) );
#177 = DATE_TIME_ROLE ( 'creation_date' ) ;
#178 = ADVANCED_FACE ( 'NONE', ( #86, #195 ), #233, .T. ) ;
#179 = PERSON_AND_ORGANIZATION_ROLE ( 'creator' ) ;
#180 = CARTESIAN_POINT ( 'NONE',  ( 0.0000000000000000000, 0.0000000000000000000, 0.0000000000000000000 ) ) ;
#181 = ADVANCED_FACE ( 'NONE', ( #35, #210 ), #209, .T. ) ;
#182 = VERTEX_POINT ( 'NONE', #44 ) ;
#183 = AXIS2_PLACEMENT_3D ( 'NONE', #144, #25, #193 ) ;
#184 = PERSON_AND_ORGANIZATION_ROLE ( 'classification_officer' ) ;
#185 = APPROVAL_PERSON_ORGANIZATION ( #9, #158, #28 ) ;
#186 = APPROVAL_ROLE ( '' ) ;
#187 = COORDINATED_UNIVERSAL_TIME_OFFSET ( 1, 0, .AHEAD. ) ;
#188 = AXIS2_PLACEMENT_3D ( 'NONE', #106, #232, #105 ) ;
#189 = ORIENTED_EDGE ( 'NONE', *, *, #34, .T. ) ;
#190 = EDGE_LOOP ( 'NONE', ( #97 ) ) ;
#191 = CC_DESIGN_PERSON_AND_ORGANIZATION_ASSIGNMENT ( #90, #179, ( #108 ) ) ;
#192 = DIRECTION ( 'NONE',  ( 0.0000000000000000000, 1.000000000000000000, 0.0000000000000000000 ) ) ;
#193 = DIRECTION ( 'NONE',  ( 0.0000000000000000000, -1.000000000000000000, 0.0000000000000000000 ) ) ;
#194 = AXIS2_PLACEMENT_3D ( 'NONE', #198, #39, #196 ) ;
#195 = FACE_BOUND ( 'NONE', #230, .T. ) ;
#196 = DIRECTION ( 'NONE',  ( -4.275831445896958607E-31, -1.000000000000000000, -1.224646799147353207E-16 ) ) ;
#197 = ADVANCED_FACE ( 'NONE', ( #23, #173 ), #3, .T. ) ;
#198 = CARTESIAN_POINT ( 'NONE',  ( -1.282754905350004587E-30, 4.499298539707956128E-32, -3.673956068672651857E-16 ) ) ;
#199 = ORGANIZATION ( 'UNSPECIFIED', 'UNSPECIFIED', '' ) ;
#200 = PERSON_AND_ORGANIZATION ( #135, #199 ) ;
#201 = DIRECTION ( 'NONE',  ( 0.0000000000000000000, 0.0000000000000000000, 1.000000000000000000 ) ) ;
#202 = AXIS2_PLACEMENT_3D ( 'NONE', #141, #175, #215 ) ;
#203 = PRODUCT_DEFINITION_FORMATION_WITH_SPECIFIED_SOURCE ( 'ANY', '', #57, .NOT_KNOWN. ) ;
#204 = APPLICATION_PROTOCOL_DEFINITION ( 'international standard', 'config_control_design', 1994, #161 ) ;
#205 = DIRECTION ( 'NONE',  ( 1.000000000000000000, 0.0000000000000000000, 0.0000000000000000000 ) ) ;
#206 = MANIFOLD_SOLID_BREP ( 'Corps-Déplacer/Copier1[2]', #109 ) ;
#207 = EDGE_LOOP ( 'NONE', ( #172 ) ) ;
#208 = CC_DESIGN_PERSON_AND_ORGANIZATION_ASSIGNMENT ( #77, #184, ( #103 ) ) ;
#209 = CYLINDRICAL_SURFACE ( 'NONE', #64, 1.499999999999991784 ) ;
#210 = FACE_OUTER_BOUND ( 'NONE', #207, .T. ) ;
#211 = DIRECTION ( 'NONE',  ( -4.318720456597940409E-31, -1.000000000000000000, -1.219242935835426903E-16 ) ) ;
#212 = EDGE_CURVE ( 'NONE', #160, #160, #131, .T. ) ;
#213 = FACE_OUTER_BOUND ( 'NONE', #227, .T. ) ;
#214 = DIRECTION ( 'NONE',  ( 0.0000000000000000000, -1.000000000000000000, 0.0000000000000000000 ) ) ;
#215 = DIRECTION ( 'NONE',  ( 0.0000000000000000000, -1.000000000000000000, 0.0000000000000000000 ) ) ;
#216 = APPROVAL_ROLE ( '' ) ;
#217 = CIRCLE ( 'NONE', #12, 0.2999999999999998779 ) ;
#218 = VERTEX_POINT ( 'NONE', #111 ) ;
#219 = VERTEX_POINT ( 'NONE', #239 ) ;
#220 = CIRCLE ( 'NONE', #183, 1.499999999999991784 ) ;
#221 = APPROVAL_PERSON_ORGANIZATION ( #31, #114, #186 ) ;
#222 = VERTEX_POINT ( 'NONE', #237 ) ;
#223 = PRODUCT_RELATED_PRODUCT_CATEGORY ( 'detail', '', ( #57 ) ) ;
#224 = AXIS2_PLACEMENT_3D ( 'NONE', #68, #243, #58 ) ;
#225 = LOCAL_TIME ( 10, 16, 34.00000000000000000, #55 ) ;
#226 = DIRECTION ( 'NONE',  ( -4.275831445896958607E-31, -1.000000000000000000, -1.224646799147353207E-16 ) ) ;
#227 = EDGE_LOOP ( 'NONE', ( #46 ) ) ;
#228 = PLANE ( 'NONE',  #82 ) ;
#229 = DIRECTION ( 'NONE',  ( 0.0000000000000000000, -1.000000000000000000, 0.0000000000000000000 ) ) ;
#230 = EDGE_LOOP ( 'NONE', ( #174 ) ) ;
#231 = ADVANCED_FACE ( 'NONE', ( #1, #170 ), #149, .F. ) ;
#232 = DIRECTION ( 'NONE',  ( 3.491481338843133355E-15, -1.224646799147353207E-16, 1.000000000000000000 ) ) ;
#233 = CONICAL_SURFACE ( 'NONE', #14, 1.199999999999993738, 0.7853981633974453924 ) ;
#234 = DIRECTION ( 'NONE',  ( 3.491481338843133355E-15, -1.224646799147353207E-16, 1.000000000000000000 ) ) ;
#235 = DIRECTION ( 'NONE',  ( 3.491481338843133355E-15, -1.219242935835426903E-16, 1.000000000000000000 ) ) ;
#236 = DATE_AND_TIME ( #29, #165 ) ;
#237 = CARTESIAN_POINT ( 'NONE',  ( 2.703023139389606447E-14, -1.499999999999992673, 7.741765964257525390 ) ) ;
#238 = PERSON_AND_ORGANIZATION_ROLE ( 'design_owner' ) ;
#239 = CARTESIAN_POINT ( 'NONE',  ( 1.326762908760390423E-13, 1.199999999999989297, 38.00000000000000000 ) ) ;
#240 = EDGE_CURVE ( 'NONE', #219, #219, #156, .T. ) ;
#241 = CALENDAR_DATE ( 2021, 1, 11 ) ;
#242 = EDGE_LOOP ( 'NONE', ( #146 ) ) ;
#243 = DIRECTION ( 'NONE',  ( -3.491481338843133355E-15, 1.224646799147353207E-16, -1.000000000000000000 ) ) ;
ENDSEC;
END-ISO-10303-21;
