ISO-10303-21;
HEADER;
FILE_DESCRIPTION (( 'STEP AP203' ),
    '1' );
FILE_NAME ('48852.step',
    '2021-11-01T09:16:33',
    ( '' ),
    ( '' ),
    'SwSTEP 2.0',
    'SolidWorks 2019',
    '' );
FILE_SCHEMA (( 'CONFIG_CONTROL_DESIGN' ));
ENDSEC;

DATA;
#1 = DIRECTION ( 'NONE',  ( -3.491481338843133355E-15, 1.224646799147353207E-16, -1.000000000000000000 ) ) ;
#2 = ORIENTED_EDGE ( 'NONE', *, *, #220, .T. ) ;
#3 = DIRECTION ( 'NONE',  ( 0.0000000000000000000, 0.0000000000000000000, 1.000000000000000000 ) ) ;
#4 = CLOSED_SHELL ( 'NONE', ( #226, #131, #124, #213, #202, #44 ) ) ;
#5 = EDGE_LOOP ( 'NONE', ( #78 ) ) ;
#6 = CALENDAR_DATE ( 2021, 1, 11 ) ;
#7 = CC_DESIGN_DATE_AND_TIME_ASSIGNMENT ( #123, #212, ( #235 ) ) ;
#8 = AXIS2_PLACEMENT_3D ( 'NONE', #125, #33, #211 ) ;
#9 = CARTESIAN_POINT ( 'NONE',  ( 1.326762908760390423E-13, 8.998558695971030697E-33, 38.00000000000000000 ) ) ;
#10 = DIRECTION ( 'NONE',  ( -4.275831445896958607E-31, -1.000000000000000000, -1.224646799147353207E-16 ) ) ;
#11 = APPROVAL_ROLE ( '' ) ;
#12 = DIRECTION ( 'NONE',  ( 3.491481338843133355E-15, -1.219242935835426903E-16, 1.000000000000000000 ) ) ;
#13 = DESIGN_CONTEXT ( 'detailed design', #86, 'design' ) ;
#14 = LOCAL_TIME ( 10, 16, 33.00000000000000000, #126 ) ;
#15 = DIRECTION ( 'NONE',  ( -4.275831445896958607E-31, -1.000000000000000000, -1.224646799147353207E-16 ) ) ;
#16 = FACE_OUTER_BOUND ( 'NONE', #229, .T. ) ;
#17 = EDGE_LOOP ( 'NONE', ( #182 ) ) ;
#18 = LOCAL_TIME ( 10, 16, 33.00000000000000000, #218 ) ;
#19 = PERSON_AND_ORGANIZATION_ROLE ( 'creator' ) ;
#20 = APPLICATION_PROTOCOL_DEFINITION ( 'international standard', 'config_control_design', 1994, #215 ) ;
#21 = EDGE_LOOP ( 'NONE', ( #181 ) ) ;
#22 = DIRECTION ( 'NONE',  ( -4.256963957985712392E-31, -1.000000000000000000, -1.219242935835429368E-16 ) ) ;
#23 = AXIS2_PLACEMENT_3D ( 'NONE', #49, #89, #32 ) ;
#24 = ORIENTED_EDGE ( 'NONE', *, *, #112, .F. ) ;
#25 = CYLINDRICAL_SURFACE ( 'NONE', #88, 1.499999999999991562 ) ;
#26 = PERSON_AND_ORGANIZATION_ROLE ( 'design_owner' ) ;
#27 = CIRCLE ( 'NONE', #23, 1.499999999999991562 ) ;
#28 = CYLINDRICAL_SURFACE ( 'NONE', #42, 0.2499999999999998335 ) ;
#29 = AXIS2_PLACEMENT_3D ( 'NONE', #217, #184, #224 ) ;
#30 = FACE_OUTER_BOUND ( 'NONE', #59, .T. ) ;
#31 = DIRECTION ( 'NONE',  ( 3.491481338843133355E-15, -1.219242935835426903E-16, 1.000000000000000000 ) ) ;
#32 = DIRECTION ( 'NONE',  ( 0.0000000000000000000, -1.000000000000000000, 0.0000000000000000000 ) ) ;
#33 = DIRECTION ( 'NONE',  ( -3.491481338843133355E-15, 1.224646799147353207E-16, -1.000000000000000000 ) ) ;
#34 = ORIENTED_EDGE ( 'NONE', *, *, #112, .T. ) ;
#35 = MANIFOLD_SOLID_BREP ( 'Corps-Déplacer/Copier1[1]', #4 ) ;
#36 = EDGE_LOOP ( 'NONE', ( #178 ) ) ;
#37 = EDGE_CURVE ( 'NONE', #134, #134, #174, .T. ) ;
#38 = TOROIDAL_SURFACE ( 'NONE', #66, 2.250000000000000444, 2.000000000000000888 ) ;
#39 = PLANE ( 'NONE',  #156 ) ;
#40 = CARTESIAN_POINT ( 'NONE',  ( 1.316288464743861212E-13, 1.499999999999989120, 37.69999999999999574 ) ) ;
#41 = PERSON_AND_ORGANIZATION_ROLE ( 'creator' ) ;
#42 = AXIS2_PLACEMENT_3D ( 'NONE', #114, #111, #214 ) ;
#43 = DATE_AND_TIME ( #187, #219 ) ;
#44 = ADVANCED_FACE ( 'NONE', ( #116 ), #39, .F. ) ;
#45 = CARTESIAN_POINT ( 'NONE',  ( -1.282754905350004587E-30, 4.499298539707956128E-32, -3.673956068672651857E-16 ) ) ;
#46 = CALENDAR_DATE ( 2021, 1, 11 ) ;
#47 = AXIS2_PLACEMENT_3D ( 'NONE', #176, #3, #162 ) ;
#48 = FACE_OUTER_BOUND ( 'NONE', #118, .T. ) ;
#49 = CARTESIAN_POINT ( 'NONE',  ( 2.593601001198657103E-14, -9.056985824059783939E-16, 7.428368504635972869 ) ) ;
#50 = DIRECTION ( 'NONE',  ( -3.491481338843133355E-15, 1.224646799147353207E-16, -1.000000000000000000 ) ) ;
#51 = CC_DESIGN_PERSON_AND_ORGANIZATION_ASSIGNMENT ( #203, #19, ( #235 ) ) ;
#52 = DIRECTION ( 'NONE',  ( 0.0000000000000000000, -1.000000000000000000, 0.0000000000000000000 ) ) ;
#53 = CC_DESIGN_APPROVAL ( #100, ( #210 ) ) ;
#54 = DIRECTION ( 'NONE',  ( 3.491481338843133355E-15, -1.219242935835426903E-16, 1.000000000000000000 ) ) ;
#55 = CARTESIAN_POINT ( 'NONE',  ( 8.728703347107830233E-15, -0.2500000000000000000, 2.499999999999999112 ) ) ;
#56 = CIRCLE ( 'NONE', #92, 1.199999999999993738 ) ;
#57 = APPLICATION_PROTOCOL_DEFINITION ( 'international standard', 'config_control_design', 1994, #86 ) ;
#58 = CARTESIAN_POINT ( 'NONE',  ( 1.053602707933308819E-14, -3.679233924390389508E-16, 3.017638090205028156 ) ) ;
#59 = EDGE_LOOP ( 'NONE', ( #90 ) ) ;
#60 = SHAPE_DEFINITION_REPRESENTATION ( #140, #195 ) ;
#61 = CIRCLE ( 'NONE', #205, 0.3181483474218593233 ) ;
#62 = APPROVAL_DATE_TIME ( #105, #100 ) ;
#63 = SECURITY_CLASSIFICATION_LEVEL ( 'unclassified' ) ;
#64 = CARTESIAN_POINT ( 'NONE',  ( 8.728703347107830233E-15, -3.048107339588566271E-16, 2.499999999999999112 ) ) ;
#65 = DATE_TIME_ROLE ( 'classification_date' ) ;
#66 = AXIS2_PLACEMENT_3D ( 'NONE', #151, #233, #106 ) ;
#67 = CARTESIAN_POINT ( 'NONE',  ( 1.326762908760390423E-13, -4.653657836759941941E-15, 38.00000000000000000 ) ) ;
#68 = FACE_OUTER_BOUND ( 'NONE', #164, .T. ) ;
#69 = PLANE ( 'NONE',  #165 ) ;
#70 = AXIS2_PLACEMENT_3D ( 'NONE', #192, #31, #169 ) ;
#71 = ORIENTED_EDGE ( 'NONE', *, *, #37, .F. ) ;
#72 = VERTEX_POINT ( 'NONE', #199 ) ;
#73 = FACE_OUTER_BOUND ( 'NONE', #17, .T. ) ;
#74 = APPROVAL_ROLE ( '' ) ;
#75 = EDGE_LOOP ( 'NONE', ( #236 ) ) ;
#76 = PERSON_AND_ORGANIZATION ( #81, #237 ) ;
#77 = LOCAL_TIME ( 10, 16, 33.00000000000000000, #139 ) ;
#78 = ORIENTED_EDGE ( 'NONE', *, *, #220, .F. ) ;
#79 = COORDINATED_UNIVERSAL_TIME_OFFSET ( 1, 0, .AHEAD. ) ;
#80 = EDGE_CURVE ( 'NONE', #72, #72, #27, .T. ) ;
#81 = PERSON ( 'UNSPECIFIED', 'UNSPECIFIED', 'UNSPECIFIED', ('UNSPECIFIED'), ('UNSPECIFIED'), ('UNSPECIFIED') ) ;
#82 = PERSON_AND_ORGANIZATION ( #81, #237 ) ;
#83 = AXIS2_PLACEMENT_3D ( 'NONE', #67, #50, #130 ) ;
#84 = DIRECTION ( 'NONE',  ( 3.491481338843133355E-15, -1.224646799147353207E-16, 1.000000000000000000 ) ) ;
#85 = FACE_BOUND ( 'NONE', #115, .T. ) ;
#86 = APPLICATION_CONTEXT ( 'configuration controlled 3d designs of mechanical parts and assemblies' ) ;
#87 = DIRECTION ( 'NONE',  ( -3.491481338843133355E-15, 1.224646799147353207E-16, -1.000000000000000000 ) ) ;
#88 = AXIS2_PLACEMENT_3D ( 'NONE', #94, #1, #133 ) ;
#89 = DIRECTION ( 'NONE',  ( -3.491481338843133355E-15, 1.219242935835426903E-16, -1.000000000000000000 ) ) ;
#90 = ORIENTED_EDGE ( 'NONE', *, *, #37, .T. ) ;
#91 = CC_DESIGN_PERSON_AND_ORGANIZATION_ASSIGNMENT ( #183, #206, ( #210 ) ) ;
#92 = AXIS2_PLACEMENT_3D ( 'NONE', #155, #113, #172 ) ;
#93 = COORDINATED_UNIVERSAL_TIME_OFFSET ( 1, 0, .AHEAD. ) ;
#94 = CARTESIAN_POINT ( 'NONE',  ( 0.0000000000000000000, 0.0000000000000000000, 0.0000000000000000000 ) ) ;
#95 = EDGE_CURVE ( 'NONE', #145, #145, #56, .T. ) ;
#96 = CARTESIAN_POINT ( 'NONE',  ( 8.728703347107830233E-15, -0.2500000000000000000, 2.499999999999999112 ) ) ;
#97 = ORIENTED_EDGE ( 'NONE', *, *, #231, .F. ) ;
#98 = VERTEX_POINT ( 'NONE', #40 ) ;
#99 = CARTESIAN_POINT ( 'NONE',  ( 1.326762908760390423E-13, 1.199999999999989297, 38.00000000000000000 ) ) ;
#100 = APPROVAL ( #230, 'UNSPECIFIED' ) ;
#101 = ORIENTED_EDGE ( 'NONE', *, *, #80, .F. ) ;
#102 = APPROVAL_PERSON_ORGANIZATION ( #239, #189, #74 ) ;
#103 = PERSON_AND_ORGANIZATION ( #81, #237 ) ;
#104 = PRODUCT ( '48852', '48852', '', ( #120 ) ) ;
#105 = DATE_AND_TIME ( #6, #77 ) ;
#106 = DIRECTION ( 'NONE',  ( -4.319447003640437456E-31, -1.000000000000000000, -1.219242935835426903E-16 ) ) ;
#107 = CONICAL_SURFACE ( 'NONE', #70, 2.499999999999992895, 0.2617993877991429685 ) ;
#108 =( GEOMETRIC_REPRESENTATION_CONTEXT ( 3 ) GLOBAL_UNCERTAINTY_ASSIGNED_CONTEXT ( ( #173 ) ) GLOBAL_UNIT_ASSIGNED_CONTEXT ( ( #159, #201, #175 ) ) REPRESENTATION_CONTEXT ( 'NONE', 'WORKASPACE' ) );
#109 = CARTESIAN_POINT ( 'NONE',  ( 8.728703347107831810E-15, 1.124819836996384995E-32, 2.499999999999999556 ) ) ;
#110 = PERSON_AND_ORGANIZATION ( #81, #237 ) ;
#111 = DIRECTION ( 'NONE',  ( 3.491481338843133355E-15, -1.219242935835426903E-16, 1.000000000000000000 ) ) ;
#112 = EDGE_CURVE ( 'NONE', #117, #117, #190, .T. ) ;
#113 = DIRECTION ( 'NONE',  ( -3.491481338843133355E-15, 1.224646799147353207E-16, -1.000000000000000000 ) ) ;
#114 = CARTESIAN_POINT ( 'NONE',  ( 0.0000000000000000000, 0.0000000000000000000, 0.0000000000000000000 ) ) ;
#115 = EDGE_LOOP ( 'NONE', ( #194 ) ) ;
#116 = FACE_OUTER_BOUND ( 'NONE', #200, .T. ) ;
#117 = VERTEX_POINT ( 'NONE', #96 ) ;
#118 = EDGE_LOOP ( 'NONE', ( #221 ) ) ;
#119 = CC_DESIGN_PERSON_AND_ORGANIZATION_ASSIGNMENT ( #150, #188, ( #132 ) ) ;
#120 = MECHANICAL_CONTEXT ( 'NONE', #215, 'mechanical' ) ;
#121 = MANIFOLD_SOLID_BREP ( 'Corps-Déplacer/Copier1[2]', #238 ) ;
#122 = APPROVAL_PERSON_ORGANIZATION ( #103, #198, #204 ) ;
#123 = DATE_AND_TIME ( #197, #18 ) ;
#124 = ADVANCED_FACE ( 'NONE', ( #193 ), #69, .F. ) ;
#125 = CARTESIAN_POINT ( 'NONE',  ( 1.316288464743861212E-13, -4.616918432785521081E-15, 37.69999999999999574 ) ) ;
#126 = COORDINATED_UNIVERSAL_TIME_OFFSET ( 1, 0, .AHEAD. ) ;
#127 = AXIS2_PLACEMENT_3D ( 'NONE', #109, #168, #10 ) ;
#128 = DIRECTION ( 'NONE',  ( 3.491481338843133355E-15, -1.224646799147353207E-16, 1.000000000000000000 ) ) ;
#129 = FACE_BOUND ( 'NONE', #21, .T. ) ;
#130 = DIRECTION ( 'NONE',  ( 0.0000000000000000000, 1.000000000000000000, 0.0000000000000000000 ) ) ;
#131 = ADVANCED_FACE ( 'NONE', ( #208, #129 ), #177, .T. ) ;
#132 = SECURITY_CLASSIFICATION ( '', '', #63 ) ;
#133 = DIRECTION ( 'NONE',  ( 4.275831445896958607E-31, 1.000000000000000000, 1.224646799147353207E-16 ) ) ;
#134 = VERTEX_POINT ( 'NONE', #55 ) ;
#135 = LOCAL_TIME ( 10, 16, 33.00000000000000000, #93 ) ;
#136 = APPROVAL_DATE_TIME ( #222, #189 ) ;
#137 = CC_DESIGN_APPROVAL ( #198, ( #132 ) ) ;
#138 = ADVANCED_FACE ( 'NONE', ( #141 ), #234, .F. ) ;
#139 = COORDINATED_UNIVERSAL_TIME_OFFSET ( 1, 0, .AHEAD. ) ;
#140 = PRODUCT_DEFINITION_SHAPE ( 'NONE', 'NONE',  #235 ) ;
#141 = FACE_OUTER_BOUND ( 'NONE', #5, .T. ) ;
#142 = APPROVAL_DATE_TIME ( #166, #198 ) ;
#143 = FACE_OUTER_BOUND ( 'NONE', #161, .T. ) ;
#144 = DIRECTION ( 'NONE',  ( -4.275831445896958607E-31, -1.000000000000000000, -1.224646799147353207E-16 ) ) ;
#145 = VERTEX_POINT ( 'NONE', #99 ) ;
#146 = DIRECTION ( 'NONE',  ( 3.491481338843133355E-15, -1.219242935835426903E-16, 1.000000000000000000 ) ) ;
#147 = CALENDAR_DATE ( 2021, 1, 11 ) ;
#148 = APPROVAL_PERSON_ORGANIZATION ( #82, #100, #11 ) ;
#149 = DIRECTION ( 'NONE',  ( 0.0000000000000000000, -1.000000000000000000, 0.0000000000000000000 ) ) ;
#150 = PERSON_AND_ORGANIZATION ( #81, #237 ) ;
#151 = CARTESIAN_POINT ( 'NONE',  ( 8.728703347107830233E-15, -4.336808689942017736E-16, 2.499999999999999112 ) ) ;
#152 = CC_DESIGN_PERSON_AND_ORGANIZATION_ASSIGNMENT ( #110, #41, ( #210 ) ) ;
#153 = CARTESIAN_POINT ( 'NONE',  ( -3.313308626534190981E-30, 1.157024123887460155E-31, -9.489693070025177309E-16 ) ) ;
#154 = AXIS2_PLACEMENT_3D ( 'NONE', #64, #12, #52 ) ;
#155 = CARTESIAN_POINT ( 'NONE',  ( 1.326762908760390423E-13, -4.653657836759941941E-15, 38.00000000000000000 ) ) ;
#156 = AXIS2_PLACEMENT_3D ( 'NONE', #186, #128, #15 ) ;
#157 = PRODUCT_RELATED_PRODUCT_CATEGORY ( 'detail', '', ( #104 ) ) ;
#158 = VERTEX_POINT ( 'NONE', #163 ) ;
#159 =( LENGTH_UNIT ( ) NAMED_UNIT ( * ) SI_UNIT ( .MILLI., .METRE. ) );
#160 = CIRCLE ( 'NONE', #196, 0.2500000000000000000 ) ;
#161 = EDGE_LOOP ( 'NONE', ( #71 ) ) ;
#162 = DIRECTION ( 'NONE',  ( 1.000000000000000000, 0.0000000000000000000, 0.0000000000000000000 ) ) ;
#163 = CARTESIAN_POINT ( 'NONE',  ( -3.419732725483833462E-30, -0.2500000000000000000, -9.794503803984034527E-16 ) ) ;
#164 = EDGE_LOOP ( 'NONE', ( #2 ) ) ;
#165 = AXIS2_PLACEMENT_3D ( 'NONE', #9, #87, #170 ) ;
#166 = DATE_AND_TIME ( #46, #14 ) ;
#167 = PLANE ( 'NONE',  #127 ) ;
#168 = DIRECTION ( 'NONE',  ( 3.491481338843133355E-15, -1.224646799147353207E-16, 1.000000000000000000 ) ) ;
#169 = DIRECTION ( 'NONE',  ( 0.0000000000000000000, -1.000000000000000000, 0.0000000000000000000 ) ) ;
#170 = DIRECTION ( 'NONE',  ( 4.275831445896958607E-31, 1.000000000000000000, 1.224646799147353207E-16 ) ) ;
#171 = EDGE_CURVE ( 'NONE', #98, #98, #185, .T. ) ;
#172 = DIRECTION ( 'NONE',  ( 0.0000000000000000000, 1.000000000000000000, 0.0000000000000000000 ) ) ;
#173 = UNCERTAINTY_MEASURE_WITH_UNIT (LENGTH_MEASURE( 1.000000000000000082E-05 ), #159, 'distance_accuracy_value', 'NONE');
#174 = CIRCLE ( 'NONE', #29, 0.2499999999999996669 ) ;
#175 =( NAMED_UNIT ( * ) SI_UNIT ( $, .STERADIAN. ) SOLID_ANGLE_UNIT ( ) );
#176 = CARTESIAN_POINT ( 'NONE',  ( 0.0000000000000000000, 0.0000000000000000000, 0.0000000000000000000 ) ) ;
#177 = CONICAL_SURFACE ( 'NONE', #83, 1.199999999999993738, 0.7853981633974453924 ) ;
#178 = ORIENTED_EDGE ( 'NONE', *, *, #95, .F. ) ;
#179 = ADVANCED_FACE ( 'NONE', ( #68, #143 ), #28, .T. ) ;
#180 = FACE_OUTER_BOUND ( 'NONE', #227, .T. ) ;
#181 = ORIENTED_EDGE ( 'NONE', *, *, #95, .T. ) ;
#182 = ORIENTED_EDGE ( 'NONE', *, *, #171, .T. ) ;
#183 = PERSON_AND_ORGANIZATION ( #81, #237 ) ;
#184 = DIRECTION ( 'NONE',  ( 3.491481338843133355E-15, -1.219242935835426903E-16, 1.000000000000000000 ) ) ;
#185 = CIRCLE ( 'NONE', #8, 1.499999999999993783 ) ;
#186 = CARTESIAN_POINT ( 'NONE',  ( 8.728703347107831810E-15, 1.124819836996384995E-32, 2.499999999999999556 ) ) ;
#187 = CALENDAR_DATE ( 2021, 1, 11 ) ;
#188 = PERSON_AND_ORGANIZATION_ROLE ( 'classification_officer' ) ;
#189 = APPROVAL ( #242, 'UNSPECIFIED' ) ;
#190 = CIRCLE ( 'NONE', #154, 0.2499999999999996669 ) ;
#191 = FACE_OUTER_BOUND ( 'NONE', #243, .T. ) ;
#192 = CARTESIAN_POINT ( 'NONE',  ( 3.896639576222809883E-14, -1.360726240736716028E-15, 11.16041931220495087 ) ) ;
#193 = FACE_OUTER_BOUND ( 'NONE', #36, .T. ) ;
#194 = ORIENTED_EDGE ( 'NONE', *, *, #231, .T. ) ;
#195 = ADVANCED_BREP_SHAPE_REPRESENTATION ( '48852', ( #35, #121, #47 ), #108 ) ;
#196 = AXIS2_PLACEMENT_3D ( 'NONE', #153, #146, #22 ) ;
#197 = CALENDAR_DATE ( 2021, 1, 11 ) ;
#198 = APPROVAL ( #209, 'UNSPECIFIED' ) ;
#199 = CARTESIAN_POINT ( 'NONE',  ( 2.593601001198657103E-14, -1.499999999999992450, 7.428368504635972869 ) ) ;
#200 = EDGE_LOOP ( 'NONE', ( #24 ) ) ;
#201 =( NAMED_UNIT ( * ) PLANE_ANGLE_UNIT ( ) SI_UNIT ( $, .RADIAN. ) );
#202 = ADVANCED_FACE ( 'NONE', ( #191, #16 ), #38, .F. ) ;
#203 = PERSON_AND_ORGANIZATION ( #81, #237 ) ;
#204 = APPROVAL_ROLE ( '' ) ;
#205 = AXIS2_PLACEMENT_3D ( 'NONE', #58, #54, #149 ) ;
#206 = PERSON_AND_ORGANIZATION_ROLE ( 'design_supplier' ) ;
#207 = ADVANCED_FACE ( 'NONE', ( #30 ), #167, .T. ) ;
#208 = FACE_OUTER_BOUND ( 'NONE', #75, .T. ) ;
#209 = APPROVAL_STATUS ( 'not_yet_approved' ) ;
#210 = PRODUCT_DEFINITION_FORMATION_WITH_SPECIFIED_SOURCE ( 'ANY', '', #104, .NOT_KNOWN. ) ;
#211 = DIRECTION ( 'NONE',  ( 0.0000000000000000000, 1.000000000000000000, 0.0000000000000000000 ) ) ;
#212 = DATE_TIME_ROLE ( 'creation_date' ) ;
#213 = ADVANCED_FACE ( 'NONE', ( #85, #48 ), #107, .T. ) ;
#214 = DIRECTION ( 'NONE',  ( -4.256963957985708889E-31, -1.000000000000000000, -1.219242935835426903E-16 ) ) ;
#215 = APPLICATION_CONTEXT ( 'configuration controlled 3d designs of mechanical parts and assemblies' ) ;
#216 = CC_DESIGN_PERSON_AND_ORGANIZATION_ASSIGNMENT ( #76, #26, ( #104 ) ) ;
#217 = CARTESIAN_POINT ( 'NONE',  ( 8.728703347107830233E-15, -3.048107339588566271E-16, 2.499999999999999112 ) ) ;
#218 = COORDINATED_UNIVERSAL_TIME_OFFSET ( 1, 0, .AHEAD. ) ;
#219 = LOCAL_TIME ( 10, 16, 33.00000000000000000, #79 ) ;
#220 = EDGE_CURVE ( 'NONE', #158, #158, #160, .T. ) ;
#221 = ORIENTED_EDGE ( 'NONE', *, *, #80, .T. ) ;
#222 = DATE_AND_TIME ( #147, #135 ) ;
#223 = CARTESIAN_POINT ( 'NONE',  ( 1.053602707933308819E-14, -0.3181483474218597118, 3.017638090205028156 ) ) ;
#224 = DIRECTION ( 'NONE',  ( 0.0000000000000000000, -1.000000000000000000, 0.0000000000000000000 ) ) ;
#225 = AXIS2_PLACEMENT_3D ( 'NONE', #45, #84, #144 ) ;
#226 = ADVANCED_FACE ( 'NONE', ( #73, #180 ), #25, .T. ) ;
#227 = EDGE_LOOP ( 'NONE', ( #101 ) ) ;
#228 = VERTEX_POINT ( 'NONE', #223 ) ;
#229 = EDGE_LOOP ( 'NONE', ( #97 ) ) ;
#230 = APPROVAL_STATUS ( 'not_yet_approved' ) ;
#231 = EDGE_CURVE ( 'NONE', #228, #228, #61, .T. ) ;
#232 = CC_DESIGN_APPROVAL ( #189, ( #235 ) ) ;
#233 = DIRECTION ( 'NONE',  ( 3.491481338843133355E-15, -1.219242935835426903E-16, 1.000000000000000000 ) ) ;
#234 = PLANE ( 'NONE',  #225 ) ;
#235 = PRODUCT_DEFINITION ( 'UNKNOWN', '', #210, #13 ) ;
#236 = ORIENTED_EDGE ( 'NONE', *, *, #171, .F. ) ;
#237 = ORGANIZATION ( 'UNSPECIFIED', 'UNSPECIFIED', '' ) ;
#238 = CLOSED_SHELL ( 'NONE', ( #207, #179, #138 ) ) ;
#239 = PERSON_AND_ORGANIZATION ( #81, #237 ) ;
#240 = CC_DESIGN_DATE_AND_TIME_ASSIGNMENT ( #43, #65, ( #132 ) ) ;
#241 = CC_DESIGN_SECURITY_CLASSIFICATION ( #132, ( #210 ) ) ;
#242 = APPROVAL_STATUS ( 'not_yet_approved' ) ;
#243 = EDGE_LOOP ( 'NONE', ( #34 ) ) ;
ENDSEC;
END-ISO-10303-21;
