ISO-10303-21;
HEADER;
FILE_DESCRIPTION (( 'STEP AP203' ),
    '1' );
FILE_NAME ('48851.step',
    '2021-11-01T09:16:33',
    ( '' ),
    ( '' ),
    'SwSTEP 2.0',
    'SolidWorks 2019',
    '' );
FILE_SCHEMA (( 'CONFIG_CONTROL_DESIGN' ));
ENDSEC;

DATA;
#1 = ORIENTED_EDGE ( 'NONE', *, *, #224, .T. ) ;
#2 = CARTESIAN_POINT ( 'NONE',  ( 2.484178863007706496E-14, -8.674878185307435262E-16, 7.114971045014416795 ) ) ;
#3 = APPROVAL ( #147, 'UNSPECIFIED' ) ;
#4 = LOCAL_TIME ( 10, 16, 33.00000000000000000, #116 ) ;
#5 = APPROVAL_ROLE ( '' ) ;
#6 = ADVANCED_FACE ( 'NONE', ( #18, #40 ), #191, .T. ) ;
#7 = PERSON_AND_ORGANIZATION ( #103, #192 ) ;
#8 = DATE_TIME_ROLE ( 'creation_date' ) ;
#9 = AXIS2_PLACEMENT_3D ( 'NONE', #111, #74, #170 ) ;
#10 = FACE_OUTER_BOUND ( 'NONE', #125, .T. ) ;
#11 = CARTESIAN_POINT ( 'NONE',  ( 6.982962677686266711E-15, 1.124819836996384995E-32, 2.000000000000000000 ) ) ;
#12 = PRODUCT_DEFINITION_FORMATION_WITH_SPECIFIED_SOURCE ( 'ANY', '', #223, .NOT_KNOWN. ) ;
#13 = CARTESIAN_POINT ( 'NONE',  ( 6.982962677686265133E-15, -0.2000000000000001499, 1.999999999999999556 ) ) ;
#14 = DIRECTION ( 'NONE',  ( 3.491481338843133355E-15, -1.219242935835426903E-16, 1.000000000000000000 ) ) ;
#15 = DIRECTION ( 'NONE',  ( 3.491481338843133355E-15, -1.224646799147353207E-16, 1.000000000000000000 ) ) ;
#16 = EDGE_LOOP ( 'NONE', ( #47 ) ) ;
#17 = APPROVAL_DATE_TIME ( #206, #3 ) ;
#18 = FACE_BOUND ( 'NONE', #113, .T. ) ;
#19 = TOROIDAL_SURFACE ( 'NONE', #61, 2.200000000000000178, 2.000000000000000000 ) ;
#20 = CARTESIAN_POINT ( 'NONE',  ( 1.326762908760390423E-13, -4.653657836759941941E-15, 38.00000000000000000 ) ) ;
#21 = ADVANCED_FACE ( 'NONE', ( #59, #177 ), #218, .T. ) ;
#22 = ORIENTED_EDGE ( 'NONE', *, *, #33, .T. ) ;
#23 = EDGE_LOOP ( 'NONE', ( #43 ) ) ;
#24 = CC_DESIGN_APPROVAL ( #189, ( #185 ) ) ;
#25 = AXIS2_PLACEMENT_3D ( 'NONE', #239, #121, #139 ) ;
#26 = PERSON_AND_ORGANIZATION_ROLE ( 'design_supplier' ) ;
#27 = DATE_AND_TIME ( #181, #4 ) ;
#28 = AXIS2_PLACEMENT_3D ( 'NONE', #233, #15, #193 ) ;
#29 = CC_DESIGN_APPROVAL ( #3, ( #89 ) ) ;
#30 =( NAMED_UNIT ( * ) PLANE_ANGLE_UNIT ( ) SI_UNIT ( $, .RADIAN. ) );
#31 = EDGE_CURVE ( 'NONE', #175, #175, #109, .T. ) ;
#32 = CARTESIAN_POINT ( 'NONE',  ( -3.377163085903975909E-30, -0.2000000000000000944, -9.672579510400488484E-16 ) ) ;
#33 = EDGE_CURVE ( 'NONE', #57, #57, #196, .T. ) ;
#34 = CARTESIAN_POINT ( 'NONE',  ( 6.982962677686265133E-15, -2.438485871670853312E-16, 1.999999999999999556 ) ) ;
#35 = PLANE ( 'NONE',  #222 ) ;
#36 = LOCAL_TIME ( 10, 16, 33.00000000000000000, #58 ) ;
#37 = FACE_OUTER_BOUND ( 'NONE', #220, .T. ) ;
#38 = PLANE ( 'NONE',  #184 ) ;
#39 = DIRECTION ( 'NONE',  ( 1.000000000000000000, 0.0000000000000000000, 0.0000000000000000000 ) ) ;
#40 = FACE_OUTER_BOUND ( 'NONE', #76, .T. ) ;
#41 = DIRECTION ( 'NONE',  ( -3.491481338843133355E-15, 1.224646799147353207E-16, -1.000000000000000000 ) ) ;
#42 = ADVANCED_FACE ( 'NONE', ( #198, #160 ), #143, .T. ) ;
#43 = ORIENTED_EDGE ( 'NONE', *, *, #232, .F. ) ;
#44 = EDGE_LOOP ( 'NONE', ( #60 ) ) ;
#45 = APPROVAL_DATE_TIME ( #200, #212 ) ;
#46 = ADVANCED_BREP_SHAPE_REPRESENTATION ( '48851', ( #162, #88, #197 ), #207 ) ;
#47 = ORIENTED_EDGE ( 'NONE', *, *, #166, .F. ) ;
#48 = AXIS2_PLACEMENT_3D ( 'NONE', #34, #55, #214 ) ;
#49 = APPROVAL_STATUS ( 'not_yet_approved' ) ;
#50 = CALENDAR_DATE ( 2021, 1, 11 ) ;
#51 = CIRCLE ( 'NONE', #100, 0.2681483474218600005 ) ;
#52 = ADVANCED_FACE ( 'NONE', ( #216 ), #236, .F. ) ;
#53 = EDGE_CURVE ( 'NONE', #187, #187, #51, .T. ) ;
#54 = DIRECTION ( 'NONE',  ( -4.275831445896958607E-31, -1.000000000000000000, -1.224646799147353207E-16 ) ) ;
#55 = DIRECTION ( 'NONE',  ( 3.491481338843133355E-15, -1.219242935835426903E-16, 1.000000000000000000 ) ) ;
#56 = DIRECTION ( 'NONE',  ( 0.0000000000000000000, -1.000000000000000000, 0.0000000000000000000 ) ) ;
#57 = VERTEX_POINT ( 'NONE', #123 ) ;
#58 = COORDINATED_UNIVERSAL_TIME_OFFSET ( 1, 0, .AHEAD. ) ;
#59 = FACE_OUTER_BOUND ( 'NONE', #127, .T. ) ;
#60 = ORIENTED_EDGE ( 'NONE', *, *, #224, .F. ) ;
#61 = AXIS2_PLACEMENT_3D ( 'NONE', #71, #169, #90 ) ;
#62 = DIRECTION ( 'NONE',  ( 0.0000000000000000000, -1.000000000000000000, 0.0000000000000000000 ) ) ;
#63 = DIRECTION ( 'NONE',  ( -3.491481338843133355E-15, 1.224646799147353207E-16, -1.000000000000000000 ) ) ;
#64 = DATE_AND_TIME ( #145, #209 ) ;
#65 = CC_DESIGN_PERSON_AND_ORGANIZATION_ASSIGNMENT ( #165, #112, ( #223 ) ) ;
#66 = CC_DESIGN_APPROVAL ( #212, ( #12 ) ) ;
#67 = APPROVAL_ROLE ( '' ) ;
#68 = ADVANCED_FACE ( 'NONE', ( #37, #73 ), #19, .F. ) ;
#69 = CIRCLE ( 'NONE', #9, 0.2000000000000000944 ) ;
#70 = DESIGN_CONTEXT ( 'detailed design', #238, 'design' ) ;
#71 = CARTESIAN_POINT ( 'NONE',  ( 6.982962677686265133E-15, -4.336808689942017736E-16, 1.999999999999999556 ) ) ;
#72 = VERTEX_POINT ( 'NONE', #137 ) ;
#73 = FACE_OUTER_BOUND ( 'NONE', #241, .T. ) ;
#74 = DIRECTION ( 'NONE',  ( 3.491481338843133355E-15, -1.219242935835426903E-16, 1.000000000000000000 ) ) ;
#75 = CIRCLE ( 'NONE', #94, 0.1999999999999999001 ) ;
#76 = EDGE_LOOP ( 'NONE', ( #22 ) ) ;
#77 = ADVANCED_FACE ( 'NONE', ( #107 ), #38, .F. ) ;
#78 = APPROVAL_STATUS ( 'not_yet_approved' ) ;
#79 = EDGE_LOOP ( 'NONE', ( #93 ) ) ;
#80 = ORIENTED_EDGE ( 'NONE', *, *, #53, .T. ) ;
#81 = CLOSED_SHELL ( 'NONE', ( #21, #42, #148, #6, #68, #52 ) ) ;
#82 = ORIENTED_EDGE ( 'NONE', *, *, #166, .T. ) ;
#83 = ORIENTED_EDGE ( 'NONE', *, *, #33, .F. ) ;
#84 = PERSON_AND_ORGANIZATION ( #103, #192 ) ;
#85 =( NAMED_UNIT ( * ) SI_UNIT ( $, .STERADIAN. ) SOLID_ANGLE_UNIT ( ) );
#86 = DIRECTION ( 'NONE',  ( -3.491481338843133355E-15, 1.224646799147353207E-16, -1.000000000000000000 ) ) ;
#87 = DIRECTION ( 'NONE',  ( 3.491481338843133355E-15, -1.224646799147353207E-16, 1.000000000000000000 ) ) ;
#88 = MANIFOLD_SOLID_BREP ( 'Corps-Déplacer/Copier1[2]', #229 ) ;
#89 = PRODUCT_DEFINITION ( 'UNKNOWN', '', #12, #70 ) ;
#90 = DIRECTION ( 'NONE',  ( -4.320190849422040846E-31, -1.000000000000000000, -1.219242935835426903E-16 ) ) ;
#91 = CARTESIAN_POINT ( 'NONE',  ( -1.282754905350004587E-30, 4.499298539707956128E-32, -3.673956068672651857E-16 ) ) ;
#92 = CARTESIAN_POINT ( 'NONE',  ( 6.982962677686265133E-15, -0.2000000000000001499, 1.999999999999999556 ) ) ;
#93 = ORIENTED_EDGE ( 'NONE', *, *, #31, .T. ) ;
#94 = AXIS2_PLACEMENT_3D ( 'NONE', #171, #235, #56 ) ;
#95 = COORDINATED_UNIVERSAL_TIME_OFFSET ( 1, 0, .AHEAD. ) ;
#96 = DIRECTION ( 'NONE',  ( 3.491481338843133355E-15, -1.219242935835426903E-16, 1.000000000000000000 ) ) ;
#97 = APPLICATION_CONTEXT ( 'configuration controlled 3d designs of mechanical parts and assemblies' ) ;
#98 = ORIENTED_EDGE ( 'NONE', *, *, #53, .F. ) ;
#99 = DIRECTION ( 'NONE',  ( 4.275831445896958607E-31, 1.000000000000000000, 1.224646799147353207E-16 ) ) ;
#100 = AXIS2_PLACEMENT_3D ( 'NONE', #106, #211, #190 ) ;
#101 = APPROVAL_PERSON_ORGANIZATION ( #146, #212, #5 ) ;
#102 = EDGE_LOOP ( 'NONE', ( #1 ) ) ;
#103 = PERSON ( 'UNSPECIFIED', 'UNSPECIFIED', 'UNSPECIFIED', ('UNSPECIFIED'), ('UNSPECIFIED'), ('UNSPECIFIED') ) ;
#104 = SECURITY_CLASSIFICATION_LEVEL ( 'unclassified' ) ;
#105 = AXIS2_PLACEMENT_3D ( 'NONE', #144, #63, #152 ) ;
#106 = CARTESIAN_POINT ( 'NONE',  ( 8.790286409911523091E-15, -3.069612456472676549E-16, 2.517638090205028600 ) ) ;
#107 = FACE_OUTER_BOUND ( 'NONE', #142, .T. ) ;
#108 = CARTESIAN_POINT ( 'NONE',  ( 0.0000000000000000000, 0.0000000000000000000, 0.0000000000000000000 ) ) ;
#109 = CIRCLE ( 'NONE', #226, 1.199999999999993738 ) ;
#110 = DIRECTION ( 'NONE',  ( 3.491481338843133355E-15, -1.224646799147353207E-16, 1.000000000000000000 ) ) ;
#111 = CARTESIAN_POINT ( 'NONE',  ( -3.292023806744262204E-30, 1.149591357204537257E-31, -9.428730923233404287E-16 ) ) ;
#112 = PERSON_AND_ORGANIZATION_ROLE ( 'design_owner' ) ;
#113 = EDGE_LOOP ( 'NONE', ( #80 ) ) ;
#114 = DIRECTION ( 'NONE',  ( 0.0000000000000000000, -1.000000000000000000, 0.0000000000000000000 ) ) ;
#115 = PERSON_AND_ORGANIZATION_ROLE ( 'creator' ) ;
#116 = COORDINATED_UNIVERSAL_TIME_OFFSET ( 1, 0, .AHEAD. ) ;
#117 = PERSON_AND_ORGANIZATION ( #103, #192 ) ;
#118 = AXIS2_PLACEMENT_3D ( 'NONE', #108, #14, #155 ) ;
#119 = AXIS2_PLACEMENT_3D ( 'NONE', #158, #141, #99 ) ;
#120 = VERTEX_POINT ( 'NONE', #13 ) ;
#121 = DIRECTION ( 'NONE',  ( -3.491481338843133355E-15, 1.224646799147353207E-16, -1.000000000000000000 ) ) ;
#122 = CIRCLE ( 'NONE', #25, 1.499999999999993783 ) ;
#123 = CARTESIAN_POINT ( 'NONE',  ( 2.484178863007706496E-14, -1.499999999999992450, 7.114971045014416795 ) ) ;
#124 = APPLICATION_PROTOCOL_DEFINITION ( 'international standard', 'config_control_design', 1994, #97 ) ;
#125 = EDGE_LOOP ( 'NONE', ( #176 ) ) ;
#126 = CALENDAR_DATE ( 2021, 1, 11 ) ;
#127 = EDGE_LOOP ( 'NONE', ( #199 ) ) ;
#128 = CC_DESIGN_DATE_AND_TIME_ASSIGNMENT ( #157, #8, ( #89 ) ) ;
#129 = DATE_TIME_ROLE ( 'classification_date' ) ;
#130 = ADVANCED_FACE ( 'NONE', ( #10, #135 ), #138, .T. ) ;
#131 = APPROVAL_PERSON_ORGANIZATION ( #203, #189, #67 ) ;
#132 = APPROVAL_DATE_TIME ( #27, #189 ) ;
#133 = CALENDAR_DATE ( 2021, 1, 11 ) ;
#134 = PRODUCT_RELATED_PRODUCT_CATEGORY ( 'detail', '', ( #223 ) ) ;
#135 = FACE_OUTER_BOUND ( 'NONE', #44, .T. ) ;
#136 = CARTESIAN_POINT ( 'NONE',  ( 1.326762908760390423E-13, 1.199999999999989297, 38.00000000000000000 ) ) ;
#137 = CARTESIAN_POINT ( 'NONE',  ( 1.316288464743861212E-13, 1.499999999999989120, 37.69999999999999574 ) ) ;
#138 = CYLINDRICAL_SURFACE ( 'NONE', #118, 0.1999999999999999833 ) ;
#139 = DIRECTION ( 'NONE',  ( 0.0000000000000000000, 1.000000000000000000, 0.0000000000000000000 ) ) ;
#140 = CARTESIAN_POINT ( 'NONE',  ( 3.787217438031859592E-14, -1.322515476861480864E-15, 10.84702185258339391 ) ) ;
#141 = DIRECTION ( 'NONE',  ( -3.491481338843133355E-15, 1.224646799147353207E-16, -1.000000000000000000 ) ) ;
#142 = EDGE_LOOP ( 'NONE', ( #195 ) ) ;
#143 = CONICAL_SURFACE ( 'NONE', #105, 1.199999999999993738, 0.7853981633974453924 ) ;
#144 = CARTESIAN_POINT ( 'NONE',  ( 1.326762908760390423E-13, -4.653657836759941941E-15, 38.00000000000000000 ) ) ;
#145 = CALENDAR_DATE ( 2021, 1, 11 ) ;
#146 = PERSON_AND_ORGANIZATION ( #103, #192 ) ;
#147 = APPROVAL_STATUS ( 'not_yet_approved' ) ;
#148 = ADVANCED_FACE ( 'NONE', ( #186 ), #35, .F. ) ;
#149 = LOCAL_TIME ( 10, 16, 33.00000000000000000, #219 ) ;
#150 = UNCERTAINTY_MEASURE_WITH_UNIT (LENGTH_MEASURE( 1.000000000000000082E-05 ), #188, 'distance_accuracy_value', 'NONE');
#151 = VERTEX_POINT ( 'NONE', #92 ) ;
#152 = DIRECTION ( 'NONE',  ( 0.0000000000000000000, 1.000000000000000000, 0.0000000000000000000 ) ) ;
#153 = CARTESIAN_POINT ( 'NONE',  ( 8.790286409911523091E-15, -0.2681483474218603336, 2.517638090205028600 ) ) ;
#154 = AXIS2_PLACEMENT_3D ( 'NONE', #2, #221, #62 ) ;
#155 = DIRECTION ( 'NONE',  ( -4.256963957985708889E-31, -1.000000000000000000, -1.219242935835426903E-16 ) ) ;
#156 = VERTEX_POINT ( 'NONE', #32 ) ;
#157 = DATE_AND_TIME ( #50, #167 ) ;
#158 = CARTESIAN_POINT ( 'NONE',  ( 0.0000000000000000000, 0.0000000000000000000, 0.0000000000000000000 ) ) ;
#159 = DIRECTION ( 'NONE',  ( 0.0000000000000000000, 1.000000000000000000, 0.0000000000000000000 ) ) ;
#160 = FACE_BOUND ( 'NONE', #79, .T. ) ;
#161 = CIRCLE ( 'NONE', #48, 0.1999999999999999001 ) ;
#162 = MANIFOLD_SOLID_BREP ( 'Corps-Déplacer/Copier1[1]', #81 ) ;
#163 = PERSON_AND_ORGANIZATION_ROLE ( 'classification_officer' ) ;
#164 = APPLICATION_PROTOCOL_DEFINITION ( 'international standard', 'config_control_design', 1994, #238 ) ;
#165 = PERSON_AND_ORGANIZATION ( #103, #192 ) ;
#166 = EDGE_CURVE ( 'NONE', #151, #151, #161, .T. ) ;
#167 = LOCAL_TIME ( 10, 16, 33.00000000000000000, #95 ) ;
#168 = EDGE_CURVE ( 'NONE', #156, #156, #69, .T. ) ;
#169 = DIRECTION ( 'NONE',  ( 3.491481338843133355E-15, -1.219242935835426903E-16, 1.000000000000000000 ) ) ;
#170 = DIRECTION ( 'NONE',  ( -4.256963957985703634E-31, -1.000000000000000000, -1.219242935835422958E-16 ) ) ;
#171 = CARTESIAN_POINT ( 'NONE',  ( 6.982962677686265133E-15, -2.438485871670853312E-16, 1.999999999999999556 ) ) ;
#172 = AXIS2_PLACEMENT_3D ( 'NONE', #140, #96, #114 ) ;
#173 = CC_DESIGN_PERSON_AND_ORGANIZATION_ASSIGNMENT ( #84, #115, ( #12 ) ) ;
#174 = DIRECTION ( 'NONE',  ( -4.275831445896958607E-31, -1.000000000000000000, -1.224646799147353207E-16 ) ) ;
#175 = VERTEX_POINT ( 'NONE', #136 ) ;
#176 = ORIENTED_EDGE ( 'NONE', *, *, #168, .T. ) ;
#177 = FACE_OUTER_BOUND ( 'NONE', #202, .T. ) ;
#178 = ORIENTED_EDGE ( 'NONE', *, *, #31, .F. ) ;
#179 = EDGE_LOOP ( 'NONE', ( #178 ) ) ;
#180 = PERSON_AND_ORGANIZATION ( #103, #192 ) ;
#181 = CALENDAR_DATE ( 2021, 1, 11 ) ;
#182 = PERSON_AND_ORGANIZATION_ROLE ( 'creator' ) ;
#183 = DIRECTION ( 'NONE',  ( 0.0000000000000000000, 0.0000000000000000000, 1.000000000000000000 ) ) ;
#184 = AXIS2_PLACEMENT_3D ( 'NONE', #91, #110, #174 ) ;
#185 = SECURITY_CLASSIFICATION ( '', '', #104 ) ;
#186 = FACE_OUTER_BOUND ( 'NONE', #179, .T. ) ;
#187 = VERTEX_POINT ( 'NONE', #153 ) ;
#188 =( LENGTH_UNIT ( ) NAMED_UNIT ( * ) SI_UNIT ( .MILLI., .METRE. ) );
#189 = APPROVAL ( #49, 'UNSPECIFIED' ) ;
#190 = DIRECTION ( 'NONE',  ( 0.0000000000000000000, -1.000000000000000000, 0.0000000000000000000 ) ) ;
#191 = CONICAL_SURFACE ( 'NONE', #172, 2.499999999999992895, 0.2617993877991430240 ) ;
#192 = ORGANIZATION ( 'UNSPECIFIED', 'UNSPECIFIED', '' ) ;
#193 = DIRECTION ( 'NONE',  ( -4.275831445896958607E-31, -1.000000000000000000, -1.224646799147353207E-16 ) ) ;
#194 = CC_DESIGN_PERSON_AND_ORGANIZATION_ASSIGNMENT ( #117, #182, ( #89 ) ) ;
#195 = ORIENTED_EDGE ( 'NONE', *, *, #168, .F. ) ;
#196 = CIRCLE ( 'NONE', #154, 1.499999999999991562 ) ;
#197 = AXIS2_PLACEMENT_3D ( 'NONE', #225, #183, #39 ) ;
#198 = FACE_OUTER_BOUND ( 'NONE', #23, .T. ) ;
#199 = ORIENTED_EDGE ( 'NONE', *, *, #232, .T. ) ;
#200 = DATE_AND_TIME ( #126, #149 ) ;
#201 = CC_DESIGN_PERSON_AND_ORGANIZATION_ASSIGNMENT ( #7, #163, ( #185 ) ) ;
#202 = EDGE_LOOP ( 'NONE', ( #83 ) ) ;
#203 = PERSON_AND_ORGANIZATION ( #103, #192 ) ;
#204 = SHAPE_DEFINITION_REPRESENTATION ( #242, #46 ) ;
#205 = ADVANCED_FACE ( 'NONE', ( #237 ), #213, .T. ) ;
#206 = DATE_AND_TIME ( #133, #36 ) ;
#207 =( GEOMETRIC_REPRESENTATION_CONTEXT ( 3 ) GLOBAL_UNCERTAINTY_ASSIGNED_CONTEXT ( ( #150 ) ) GLOBAL_UNIT_ASSIGNED_CONTEXT ( ( #188, #30, #85 ) ) REPRESENTATION_CONTEXT ( 'NONE', 'WORKASPACE' ) );
#208 = DIRECTION ( 'NONE',  ( 4.275831445896958607E-31, 1.000000000000000000, 1.224646799147353207E-16 ) ) ;
#209 = LOCAL_TIME ( 10, 16, 33.00000000000000000, #227 ) ;
#210 = CARTESIAN_POINT ( 'NONE',  ( 1.326762908760390423E-13, 8.998558695971030697E-33, 38.00000000000000000 ) ) ;
#211 = DIRECTION ( 'NONE',  ( 3.491481338843133355E-15, -1.219242935835426903E-16, 1.000000000000000000 ) ) ;
#212 = APPROVAL ( #78, 'UNSPECIFIED' ) ;
#213 = PLANE ( 'NONE',  #240 ) ;
#214 = DIRECTION ( 'NONE',  ( 0.0000000000000000000, -1.000000000000000000, 0.0000000000000000000 ) ) ;
#215 = CC_DESIGN_DATE_AND_TIME_ASSIGNMENT ( #64, #129, ( #185 ) ) ;
#216 = FACE_OUTER_BOUND ( 'NONE', #16, .T. ) ;
#217 = APPROVAL_ROLE ( '' ) ;
#218 = CYLINDRICAL_SURFACE ( 'NONE', #119, 1.499999999999991562 ) ;
#219 = COORDINATED_UNIVERSAL_TIME_OFFSET ( 1, 0, .AHEAD. ) ;
#220 = EDGE_LOOP ( 'NONE', ( #82 ) ) ;
#221 = DIRECTION ( 'NONE',  ( -3.491481338843133355E-15, 1.219242935835426903E-16, -1.000000000000000000 ) ) ;
#222 = AXIS2_PLACEMENT_3D ( 'NONE', #210, #86, #208 ) ;
#223 = PRODUCT ( '48851', '48851', '', ( #243 ) ) ;
#224 = EDGE_CURVE ( 'NONE', #120, #120, #75, .T. ) ;
#225 = CARTESIAN_POINT ( 'NONE',  ( 0.0000000000000000000, 0.0000000000000000000, 0.0000000000000000000 ) ) ;
#226 = AXIS2_PLACEMENT_3D ( 'NONE', #20, #41, #159 ) ;
#227 = COORDINATED_UNIVERSAL_TIME_OFFSET ( 1, 0, .AHEAD. ) ;
#228 = CC_DESIGN_PERSON_AND_ORGANIZATION_ASSIGNMENT ( #180, #26, ( #12 ) ) ;
#229 = CLOSED_SHELL ( 'NONE', ( #205, #130, #77 ) ) ;
#230 = PERSON_AND_ORGANIZATION ( #103, #192 ) ;
#231 = APPROVAL_PERSON_ORGANIZATION ( #230, #3, #217 ) ;
#232 = EDGE_CURVE ( 'NONE', #72, #72, #122, .T. ) ;
#233 = CARTESIAN_POINT ( 'NONE',  ( 6.982962677686266711E-15, 1.124819836996384995E-32, 2.000000000000000000 ) ) ;
#234 = CC_DESIGN_SECURITY_CLASSIFICATION ( #185, ( #12 ) ) ;
#235 = DIRECTION ( 'NONE',  ( 3.491481338843133355E-15, -1.219242935835426903E-16, 1.000000000000000000 ) ) ;
#236 = PLANE ( 'NONE',  #28 ) ;
#237 = FACE_OUTER_BOUND ( 'NONE', #102, .T. ) ;
#238 = APPLICATION_CONTEXT ( 'configuration controlled 3d designs of mechanical parts and assemblies' ) ;
#239 = CARTESIAN_POINT ( 'NONE',  ( 1.316288464743861212E-13, -4.616918432785521081E-15, 37.69999999999999574 ) ) ;
#240 = AXIS2_PLACEMENT_3D ( 'NONE', #11, #87, #54 ) ;
#241 = EDGE_LOOP ( 'NONE', ( #98 ) ) ;
#242 = PRODUCT_DEFINITION_SHAPE ( 'NONE', 'NONE',  #89 ) ;
#243 = MECHANICAL_CONTEXT ( 'NONE', #97, 'mechanical' ) ;
ENDSEC;
END-ISO-10303-21;
