ISO-10303-21;
HEADER;
FILE_DESCRIPTION (( 'STEP AP203' ),
    '1' );
FILE_NAME ('48850.step',
    '2021-11-01T09:16:32',
    ( '' ),
    ( '' ),
    'SwSTEP 2.0',
    'SolidWorks 2019',
    '' );
FILE_SCHEMA (( 'CONFIG_CONTROL_DESIGN' ));
ENDSEC;

DATA;
#1 = CC_DESIGN_PERSON_AND_ORGANIZATION_ASSIGNMENT ( #56, #22, ( #101 ) ) ;
#2 = DATE_TIME_ROLE ( 'creation_date' ) ;
#3 =( GEOMETRIC_REPRESENTATION_CONTEXT ( 3 ) GLOBAL_UNCERTAINTY_ASSIGNED_CONTEXT ( ( #40 ) ) GLOBAL_UNIT_ASSIGNED_CONTEXT ( ( #134, #81, #147 ) ) REPRESENTATION_CONTEXT ( 'NONE', 'WORKASPACE' ) );
#4 = DIRECTION ( 'NONE',  ( 3.491481338843133355E-15, -1.224646799147353207E-16, 1.000000000000000000 ) ) ;
#5 = EDGE_CURVE ( 'NONE', #149, #149, #197, .T. ) ;
#6 = ORIENTED_EDGE ( 'NONE', *, *, #11, .F. ) ;
#7 = EDGE_LOOP ( 'NONE', ( #156 ) ) ;
#8 = ORIENTED_EDGE ( 'NONE', *, *, #62, .F. ) ;
#9 = AXIS2_PLACEMENT_3D ( 'NONE', #139, #92, #236 ) ;
#10 = DIRECTION ( 'NONE',  ( -4.256963957985694876E-31, -1.000000000000000000, -1.219242935835426903E-16 ) ) ;
#11 = EDGE_CURVE ( 'NONE', #223, #223, #131, .T. ) ;
#12 = PRODUCT ( '48850', '48850', '', ( #243 ) ) ;
#13 = DIRECTION ( 'NONE',  ( 3.491481338843133355E-15, -1.219242935835426903E-16, 1.000000000000000000 ) ) ;
#14 = AXIS2_PLACEMENT_3D ( 'NONE', #107, #13, #45 ) ;
#15 = DIRECTION ( 'NONE',  ( -3.491481338843133355E-15, 1.219242935835426903E-16, -1.000000000000000000 ) ) ;
#16 = ADVANCED_FACE ( 'NONE', ( #67 ), #35, .F. ) ;
#17 = CYLINDRICAL_SURFACE ( 'NONE', #155, 1.499999999999991562 ) ;
#18 = APPROVAL_ROLE ( '' ) ;
#19 = CC_DESIGN_SECURITY_CLASSIFICATION ( #188, ( #101 ) ) ;
#20 = CARTESIAN_POINT ( 'NONE',  ( 1.326762908760390423E-13, 1.199999999999989297, 38.00000000000000000 ) ) ;
#21 = AXIS2_PLACEMENT_3D ( 'NONE', #183, #87, #157 ) ;
#22 = PERSON_AND_ORGANIZATION_ROLE ( 'creator' ) ;
#23 = CALENDAR_DATE ( 2021, 1, 11 ) ;
#24 = CLOSED_SHELL ( 'NONE', ( #126, #43, #54, #201, #104, #16 ) ) ;
#25 = DATE_AND_TIME ( #119, #136 ) ;
#26 = ORIENTED_EDGE ( 'NONE', *, *, #5, .F. ) ;
#27 = EDGE_LOOP ( 'NONE', ( #175 ) ) ;
#28 = AXIS2_PLACEMENT_3D ( 'NONE', #200, #68, #216 ) ;
#29 = ORIENTED_EDGE ( 'NONE', *, *, #114, .T. ) ;
#30 = APPROVAL ( #225, 'UNSPECIFIED' ) ;
#31 = CLOSED_SHELL ( 'NONE', ( #226, #172, #48 ) ) ;
#32 = DIRECTION ( 'NONE',  ( 4.275831445896958607E-31, 1.000000000000000000, 1.224646799147353207E-16 ) ) ;
#33 = FACE_BOUND ( 'NONE', #213, .T. ) ;
#34 = CARTESIAN_POINT ( 'NONE',  ( 1.326762908760390423E-13, 8.998558695971030697E-33, 38.00000000000000000 ) ) ;
#35 = PLANE ( 'NONE',  #96 ) ;
#36 = FACE_OUTER_BOUND ( 'NONE', #152, .T. ) ;
#37 = APPROVAL_ROLE ( '' ) ;
#38 = PERSON_AND_ORGANIZATION ( #44, #135 ) ;
#39 = TOROIDAL_SURFACE ( 'NONE', #61, 2.149999999999999911, 2.000000000000000000 ) ;
#40 = UNCERTAINTY_MEASURE_WITH_UNIT (LENGTH_MEASURE( 1.000000000000000082E-05 ), #134, 'distance_accuracy_value', 'NONE');
#41 = FACE_OUTER_BOUND ( 'NONE', #64, .T. ) ;
#42 = DIRECTION ( 'NONE',  ( -4.275831445896958607E-31, -1.000000000000000000, -1.224646799147353207E-16 ) ) ;
#43 = ADVANCED_FACE ( 'NONE', ( #110, #128 ), #221, .T. ) ;
#44 = PERSON ( 'UNSPECIFIED', 'UNSPECIFIED', 'UNSPECIFIED', ('UNSPECIFIED'), ('UNSPECIFIED'), ('UNSPECIFIED') ) ;
#45 = DIRECTION ( 'NONE',  ( 0.0000000000000000000, -1.000000000000000000, 0.0000000000000000000 ) ) ;
#46 = COORDINATED_UNIVERSAL_TIME_OFFSET ( 1, 0, .AHEAD. ) ;
#47 = ORIENTED_EDGE ( 'NONE', *, *, #62, .T. ) ;
#48 = ADVANCED_FACE ( 'NONE', ( #198 ), #218, .F. ) ;
#49 = EDGE_LOOP ( 'NONE', ( #26 ) ) ;
#50 = DIRECTION ( 'NONE',  ( -3.491481338843133355E-15, 1.224646799147353207E-16, -1.000000000000000000 ) ) ;
#51 = LOCAL_TIME ( 10, 16, 32.00000000000000000, #130 ) ;
#52 = FACE_OUTER_BOUND ( 'NONE', #137, .T. ) ;
#53 = CARTESIAN_POINT ( 'NONE',  ( 5.298805071068388947E-15, -1.850369520637249153E-16, 1.517638090205028378 ) ) ;
#54 = ADVANCED_FACE ( 'NONE', ( #88 ), #57, .F. ) ;
#55 = DIRECTION ( 'NONE',  ( 3.491481338843133355E-15, -1.224646799147353207E-16, 1.000000000000000000 ) ) ;
#56 = PERSON_AND_ORGANIZATION ( #44, #135 ) ;
#57 = PLANE ( 'NONE',  #196 ) ;
#58 = APPLICATION_CONTEXT ( 'configuration controlled 3d designs of mechanical parts and assemblies' ) ;
#59 = PERSON_AND_ORGANIZATION_ROLE ( 'creator' ) ;
#60 = APPROVAL_ROLE ( '' ) ;
#61 = AXIS2_PLACEMENT_3D ( 'NONE', #238, #140, #145 ) ;
#62 = EDGE_CURVE ( 'NONE', #63, #63, #208, .T. ) ;
#63 = VERTEX_POINT ( 'NONE', #167 ) ;
#64 = EDGE_LOOP ( 'NONE', ( #194 ) ) ;
#65 = ORIENTED_EDGE ( 'NONE', *, *, #162, .T. ) ;
#66 = ORIENTED_EDGE ( 'NONE', *, *, #85, .T. ) ;
#67 = FACE_OUTER_BOUND ( 'NONE', #82, .T. ) ;
#68 = DIRECTION ( 'NONE',  ( 3.491481338843133355E-15, -1.219242935835426903E-16, 1.000000000000000000 ) ) ;
#69 = CC_DESIGN_PERSON_AND_ORGANIZATION_ASSIGNMENT ( #89, #159, ( #188 ) ) ;
#70 = DIRECTION ( 'NONE',  ( 0.0000000000000000000, 1.000000000000000000, 0.0000000000000000000 ) ) ;
#71 = COORDINATED_UNIVERSAL_TIME_OFFSET ( 1, 0, .AHEAD. ) ;
#72 = DIRECTION ( 'NONE',  ( 0.0000000000000000000, 1.000000000000000000, 0.0000000000000000000 ) ) ;
#73 = DIRECTION ( 'NONE',  ( 4.275831445896958607E-31, 1.000000000000000000, 1.224646799147353207E-16 ) ) ;
#74 = APPROVAL ( #242, 'UNSPECIFIED' ) ;
#75 = APPLICATION_PROTOCOL_DEFINITION ( 'international standard', 'config_control_design', 1994, #58 ) ;
#76 = DATE_AND_TIME ( #207, #122 ) ;
#77 = SHAPE_DEFINITION_REPRESENTATION ( #217, #195 ) ;
#78 = PERSON_AND_ORGANIZATION ( #44, #135 ) ;
#79 = DATE_AND_TIME ( #169, #117 ) ;
#80 = APPROVAL_PERSON_ORGANIZATION ( #222, #74, #18 ) ;
#81 =( NAMED_UNIT ( * ) PLANE_ANGLE_UNIT ( ) SI_UNIT ( $, .RADIAN. ) );
#82 = EDGE_LOOP ( 'NONE', ( #233 ) ) ;
#83 = MANIFOLD_SOLID_BREP ( 'Corps-Déplacer/Copier1[2]', #31 ) ;
#84 = CONICAL_SURFACE ( 'NONE', #14, 2.499999999999992895, 0.2617993877991430240 ) ;
#85 = EDGE_CURVE ( 'NONE', #168, #168, #100, .T. ) ;
#86 = AXIS2_PLACEMENT_3D ( 'NONE', #53, #240, #123 ) ;
#87 = DIRECTION ( 'NONE',  ( 3.491481338843133355E-15, -1.219242935835426903E-16, 1.000000000000000000 ) ) ;
#88 = FACE_OUTER_BOUND ( 'NONE', #193, .T. ) ;
#89 = PERSON_AND_ORGANIZATION ( #44, #135 ) ;
#90 = CARTESIAN_POINT ( 'NONE',  ( -1.282754905350004587E-30, 4.499298539707956128E-32, -3.673956068672651857E-16 ) ) ;
#91 = DIRECTION ( 'NONE',  ( -3.491481338843133355E-15, 1.224646799147353207E-16, -1.000000000000000000 ) ) ;
#92 = DIRECTION ( 'NONE',  ( 3.491481338843133355E-15, -1.219242935835426903E-16, 1.000000000000000000 ) ) ;
#93 = CC_DESIGN_DATE_AND_TIME_ASSIGNMENT ( #98, #2, ( #182 ) ) ;
#94 = CARTESIAN_POINT ( 'NONE',  ( 0.0000000000000000000, 0.0000000000000000000, 0.0000000000000000000 ) ) ;
#95 = CIRCLE ( 'NONE', #115, 0.1499999999999999667 ) ;
#96 = AXIS2_PLACEMENT_3D ( 'NONE', #142, #202, #121 ) ;
#97 = PLANE ( 'NONE',  #146 ) ;
#98 = DATE_AND_TIME ( #23, #51 ) ;
#99 = PRODUCT_RELATED_PRODUCT_CATEGORY ( 'detail', '', ( #12 ) ) ;
#100 = CIRCLE ( 'NONE', #234, 1.499999999999993783 ) ;
#101 = PRODUCT_DEFINITION_FORMATION_WITH_SPECIFIED_SOURCE ( 'ANY', '', #12, .NOT_KNOWN. ) ;
#102 = CALENDAR_DATE ( 2021, 1, 11 ) ;
#103 = EDGE_LOOP ( 'NONE', ( #6 ) ) ;
#104 = ADVANCED_FACE ( 'NONE', ( #108, #160 ), #39, .F. ) ;
#105 = AXIS2_PLACEMENT_3D ( 'NONE', #94, #165, #229 ) ;
#106 = DIRECTION ( 'NONE',  ( 3.491481338843133355E-15, -1.219242935835426903E-16, 1.000000000000000000 ) ) ;
#107 = CARTESIAN_POINT ( 'NONE',  ( 3.503221232898753895E-14, -1.223342566194475440E-15, 10.03362439296184583 ) ) ;
#108 = FACE_OUTER_BOUND ( 'NONE', #138, .T. ) ;
#109 = DIRECTION ( 'NONE',  ( -3.491481338843133355E-15, 1.224646799147353207E-16, -1.000000000000000000 ) ) ;
#110 = FACE_OUTER_BOUND ( 'NONE', #177, .T. ) ;
#111 = COORDINATED_UNIVERSAL_TIME_OFFSET ( 1, 0, .AHEAD. ) ;
#112 = CC_DESIGN_DATE_AND_TIME_ASSIGNMENT ( #79, #144, ( #188 ) ) ;
#113 = VERTEX_POINT ( 'NONE', #191 ) ;
#114 = EDGE_CURVE ( 'NONE', #189, #189, #173, .T. ) ;
#115 = AXIS2_PLACEMENT_3D ( 'NONE', #185, #106, #10 ) ;
#116 = EDGE_LOOP ( 'NONE', ( #29 ) ) ;
#117 = LOCAL_TIME ( 10, 16, 32.00000000000000000, #71 ) ;
#118 = ORIENTED_EDGE ( 'NONE', *, *, #5, .T. ) ;
#119 = CALENDAR_DATE ( 2021, 1, 11 ) ;
#120 = PERSON_AND_ORGANIZATION ( #44, #135 ) ;
#121 = DIRECTION ( 'NONE',  ( -4.275831445896958607E-31, -1.000000000000000000, -1.224646799147353207E-16 ) ) ;
#122 = LOCAL_TIME ( 10, 16, 32.00000000000000000, #111 ) ;
#123 = DIRECTION ( 'NONE',  ( 0.0000000000000000000, -1.000000000000000000, 0.0000000000000000000 ) ) ;
#124 = DIRECTION ( 'NONE',  ( -3.491481338843133355E-15, 1.224646799147353207E-16, -1.000000000000000000 ) ) ;
#125 = DIRECTION ( 'NONE',  ( -4.275831445896958607E-31, -1.000000000000000000, -1.224646799147353207E-16 ) ) ;
#126 = ADVANCED_FACE ( 'NONE', ( #36, #143 ), #17, .T. ) ;
#127 = AXIS2_PLACEMENT_3D ( 'NONE', #163, #50, #72 ) ;
#128 = FACE_BOUND ( 'NONE', #116, .T. ) ;
#129 = PERSON_AND_ORGANIZATION ( #44, #135 ) ;
#130 = COORDINATED_UNIVERSAL_TIME_OFFSET ( 1, 0, .AHEAD. ) ;
#131 = CIRCLE ( 'NONE', #21, 0.1500000000000000777 ) ;
#132 = CARTESIAN_POINT ( 'NONE',  ( 3.491481338843131778E-15, -0.1500000000000001887, 0.9999999999999995559 ) ) ;
#133 = CC_DESIGN_PERSON_AND_ORGANIZATION_ASSIGNMENT ( #224, #59, ( #182 ) ) ;
#134 =( LENGTH_UNIT ( ) NAMED_UNIT ( * ) SI_UNIT ( .MILLI., .METRE. ) );
#135 = ORGANIZATION ( 'UNSPECIFIED', 'UNSPECIFIED', '' ) ;
#136 = LOCAL_TIME ( 10, 16, 32.00000000000000000, #46 ) ;
#137 = EDGE_LOOP ( 'NONE', ( #47 ) ) ;
#138 = EDGE_LOOP ( 'NONE', ( #65 ) ) ;
#139 = CARTESIAN_POINT ( 'NONE',  ( 3.491481338843131778E-15, -1.219242935835426410E-16, 0.9999999999999995559 ) ) ;
#140 = DIRECTION ( 'NONE',  ( 3.491481338843133355E-15, -1.219242935835426903E-16, 1.000000000000000000 ) ) ;
#141 = AXIS2_PLACEMENT_3D ( 'NONE', #203, #181, #164 ) ;
#142 = CARTESIAN_POINT ( 'NONE',  ( 3.491481338843133355E-15, 1.124819836996384995E-32, 1.000000000000000000 ) ) ;
#143 = FACE_OUTER_BOUND ( 'NONE', #212, .T. ) ;
#144 = DATE_TIME_ROLE ( 'classification_date' ) ;
#145 = DIRECTION ( 'NONE',  ( -4.320952619198382142E-31, -1.000000000000000000, -1.219242935835426903E-16 ) ) ;
#146 = AXIS2_PLACEMENT_3D ( 'NONE', #209, #4, #42 ) ;
#147 =( NAMED_UNIT ( * ) SI_UNIT ( $, .STERADIAN. ) SOLID_ANGLE_UNIT ( ) );
#148 = APPROVAL_DATE_TIME ( #76, #210 ) ;
#149 = VERTEX_POINT ( 'NONE', #186 ) ;
#150 = CARTESIAN_POINT ( 'NONE',  ( 1.316288464743861212E-13, 1.499999999999989120, 37.69999999999999574 ) ) ;
#151 = APPROVAL_DATE_TIME ( #25, #74 ) ;
#152 = EDGE_LOOP ( 'NONE', ( #66 ) ) ;
#153 = CC_DESIGN_APPROVAL ( #210, ( #182 ) ) ;
#154 = EDGE_CURVE ( 'NONE', #113, #113, #95, .T. ) ;
#155 = AXIS2_PLACEMENT_3D ( 'NONE', #219, #109, #32 ) ;
#156 = ORIENTED_EDGE ( 'NONE', *, *, #154, .F. ) ;
#157 = DIRECTION ( 'NONE',  ( 0.0000000000000000000, -1.000000000000000000, 0.0000000000000000000 ) ) ;
#158 = CARTESIAN_POINT ( 'NONE',  ( 1.316288464743861212E-13, -4.616918432785521081E-15, 37.69999999999999574 ) ) ;
#159 = PERSON_AND_ORGANIZATION_ROLE ( 'classification_officer' ) ;
#160 = FACE_OUTER_BOUND ( 'NONE', #49, .T. ) ;
#161 = APPROVAL_PERSON_ORGANIZATION ( #78, #30, #60 ) ;
#162 = EDGE_CURVE ( 'NONE', #170, #170, #232, .T. ) ;
#163 = CARTESIAN_POINT ( 'NONE',  ( 1.326762908760390423E-13, -4.653657836759941941E-15, 38.00000000000000000 ) ) ;
#164 = DIRECTION ( 'NONE',  ( 0.0000000000000000000, 1.000000000000000000, 0.0000000000000000000 ) ) ;
#165 = DIRECTION ( 'NONE',  ( 0.0000000000000000000, 0.0000000000000000000, 1.000000000000000000 ) ) ;
#166 = APPROVAL_PERSON_ORGANIZATION ( #38, #210, #37 ) ;
#167 = CARTESIAN_POINT ( 'NONE',  ( 2.200182657874601115E-14, -1.499999999999992450, 6.301573585392867827 ) ) ;
#168 = VERTEX_POINT ( 'NONE', #150 ) ;
#169 = CALENDAR_DATE ( 2021, 1, 11 ) ;
#170 = VERTEX_POINT ( 'NONE', #132 ) ;
#171 = APPLICATION_PROTOCOL_DEFINITION ( 'international standard', 'config_control_design', 1994, #179 ) ;
#172 = ADVANCED_FACE ( 'NONE', ( #220, #214 ), #237, .T. ) ;
#173 = CIRCLE ( 'NONE', #127, 1.199999999999993738 ) ;
#174 = ORIENTED_EDGE ( 'NONE', *, *, #85, .F. ) ;
#175 = ORIENTED_EDGE ( 'NONE', *, *, #154, .T. ) ;
#176 = APPROVAL_DATE_TIME ( #211, #30 ) ;
#177 = EDGE_LOOP ( 'NONE', ( #174 ) ) ;
#178 = DIRECTION ( 'NONE',  ( 0.0000000000000000000, -1.000000000000000000, 0.0000000000000000000 ) ) ;
#179 = APPLICATION_CONTEXT ( 'configuration controlled 3d designs of mechanical parts and assemblies' ) ;
#180 = SECURITY_CLASSIFICATION_LEVEL ( 'unclassified' ) ;
#181 = DIRECTION ( 'NONE',  ( -3.491481338843133355E-15, 1.224646799147353207E-16, -1.000000000000000000 ) ) ;
#182 = PRODUCT_DEFINITION ( 'UNKNOWN', '', #101, #190 ) ;
#183 = CARTESIAN_POINT ( 'NONE',  ( 3.491481338843131778E-15, -1.219242935835426410E-16, 0.9999999999999995559 ) ) ;
#184 = AXIS2_PLACEMENT_3D ( 'NONE', #205, #15, #178 ) ;
#185 = CARTESIAN_POINT ( 'NONE',  ( -3.270738986954333427E-30, 1.142158590521614359E-31, -9.367768776441633238E-16 ) ) ;
#186 = CARTESIAN_POINT ( 'NONE',  ( 5.298805071068388947E-15, -0.2181483474218603724, 1.517638090205028378 ) ) ;
#187 = CARTESIAN_POINT ( 'NONE',  ( 3.491481338843131778E-15, -0.1500000000000001887, 0.9999999999999995559 ) ) ;
#188 = SECURITY_CLASSIFICATION ( '', '', #180 ) ;
#189 = VERTEX_POINT ( 'NONE', #20 ) ;
#190 = DESIGN_CONTEXT ( 'detailed design', #58, 'design' ) ;
#191 = CARTESIAN_POINT ( 'NONE',  ( -3.334593446324119056E-30, -0.1499999999999999667, -9.550655216816948358E-16 ) ) ;
#192 = PERSON_AND_ORGANIZATION_ROLE ( 'design_owner' ) ;
#193 = EDGE_LOOP ( 'NONE', ( #235 ) ) ;
#194 = ORIENTED_EDGE ( 'NONE', *, *, #11, .T. ) ;
#195 = ADVANCED_BREP_SHAPE_REPRESENTATION ( '48850', ( #239, #83, #105 ), #3 ) ;
#196 = AXIS2_PLACEMENT_3D ( 'NONE', #34, #124, #73 ) ;
#197 = CIRCLE ( 'NONE', #86, 0.2181483474218601781 ) ;
#198 = FACE_OUTER_BOUND ( 'NONE', #7, .T. ) ;
#199 = PERSON_AND_ORGANIZATION_ROLE ( 'design_supplier' ) ;
#200 = CARTESIAN_POINT ( 'NONE',  ( 0.0000000000000000000, 0.0000000000000000000, 0.0000000000000000000 ) ) ;
#201 = ADVANCED_FACE ( 'NONE', ( #33, #52 ), #84, .T. ) ;
#202 = DIRECTION ( 'NONE',  ( 3.491481338843133355E-15, -1.224646799147353207E-16, 1.000000000000000000 ) ) ;
#203 = CARTESIAN_POINT ( 'NONE',  ( 1.326762908760390423E-13, -4.653657836759941941E-15, 38.00000000000000000 ) ) ;
#204 = AXIS2_PLACEMENT_3D ( 'NONE', #90, #55, #125 ) ;
#205 = CARTESIAN_POINT ( 'NONE',  ( 2.200182657874601115E-14, -7.683149078637378063E-16, 6.301573585392867827 ) ) ;
#206 = APPROVAL_STATUS ( 'not_yet_approved' ) ;
#207 = CALENDAR_DATE ( 2021, 1, 11 ) ;
#208 = CIRCLE ( 'NONE', #184, 1.499999999999991562 ) ;
#209 = CARTESIAN_POINT ( 'NONE',  ( 3.491481338843133355E-15, 1.124819836996384995E-32, 1.000000000000000000 ) ) ;
#210 = APPROVAL ( #206, 'UNSPECIFIED' ) ;
#211 = DATE_AND_TIME ( #102, #228 ) ;
#212 = EDGE_LOOP ( 'NONE', ( #8 ) ) ;
#213 = EDGE_LOOP ( 'NONE', ( #118 ) ) ;
#214 = FACE_OUTER_BOUND ( 'NONE', #103, .T. ) ;
#215 = CC_DESIGN_APPROVAL ( #30, ( #101 ) ) ;
#216 = DIRECTION ( 'NONE',  ( -4.256963957985708889E-31, -1.000000000000000000, -1.219242935835426656E-16 ) ) ;
#217 = PRODUCT_DEFINITION_SHAPE ( 'NONE', 'NONE',  #182 ) ;
#218 = PLANE ( 'NONE',  #204 ) ;
#219 = CARTESIAN_POINT ( 'NONE',  ( 0.0000000000000000000, 0.0000000000000000000, 0.0000000000000000000 ) ) ;
#220 = FACE_OUTER_BOUND ( 'NONE', #27, .T. ) ;
#221 = CONICAL_SURFACE ( 'NONE', #141, 1.199999999999993738, 0.7853981633974453924 ) ;
#222 = PERSON_AND_ORGANIZATION ( #44, #135 ) ;
#223 = VERTEX_POINT ( 'NONE', #187 ) ;
#224 = PERSON_AND_ORGANIZATION ( #44, #135 ) ;
#225 = APPROVAL_STATUS ( 'not_yet_approved' ) ;
#226 = ADVANCED_FACE ( 'NONE', ( #41 ), #97, .T. ) ;
#227 = CC_DESIGN_APPROVAL ( #74, ( #188 ) ) ;
#228 = LOCAL_TIME ( 10, 16, 32.00000000000000000, #231 ) ;
#229 = DIRECTION ( 'NONE',  ( 1.000000000000000000, 0.0000000000000000000, 0.0000000000000000000 ) ) ;
#230 = CC_DESIGN_PERSON_AND_ORGANIZATION_ASSIGNMENT ( #120, #199, ( #101 ) ) ;
#231 = COORDINATED_UNIVERSAL_TIME_OFFSET ( 1, 0, .AHEAD. ) ;
#232 = CIRCLE ( 'NONE', #9, 0.1500000000000000777 ) ;
#233 = ORIENTED_EDGE ( 'NONE', *, *, #162, .F. ) ;
#234 = AXIS2_PLACEMENT_3D ( 'NONE', #158, #91, #70 ) ;
#235 = ORIENTED_EDGE ( 'NONE', *, *, #114, .F. ) ;
#236 = DIRECTION ( 'NONE',  ( 0.0000000000000000000, -1.000000000000000000, 0.0000000000000000000 ) ) ;
#237 = CYLINDRICAL_SURFACE ( 'NONE', #28, 0.1500000000000000222 ) ;
#238 = CARTESIAN_POINT ( 'NONE',  ( 3.491481338843130989E-15, 0.0000000000000000000, 0.9999999999999993339 ) ) ;
#239 = MANIFOLD_SOLID_BREP ( 'Corps-Déplacer/Copier1[1]', #24 ) ;
#240 = DIRECTION ( 'NONE',  ( 3.491481338843133355E-15, -1.219242935835426903E-16, 1.000000000000000000 ) ) ;
#241 = CC_DESIGN_PERSON_AND_ORGANIZATION_ASSIGNMENT ( #129, #192, ( #12 ) ) ;
#242 = APPROVAL_STATUS ( 'not_yet_approved' ) ;
#243 = MECHANICAL_CONTEXT ( 'NONE', #179, 'mechanical' ) ;
ENDSEC;
END-ISO-10303-21;
