ISO-10303-21;
HEADER;
FILE_DESCRIPTION (( 'STEP AP203' ),
    '1' );
FILE_NAME ('48813.step',
    '2021-09-21T08:21:50',
    ( '' ),
    ( '' ),
    'SwSTEP 2.0',
    'SolidWorks 2019',
    '' );
FILE_SCHEMA (( 'CONFIG_CONTROL_DESIGN' ));
ENDSEC;

DATA;
#1 = PERSON_AND_ORGANIZATION ( #118, #56 ) ;
#2 = ADVANCED_FACE ( 'NONE', ( #61 ), #148, .F. ) ;
#3 = PERSON_AND_ORGANIZATION ( #118, #56 ) ;
#4 = APPROVAL_DATE_TIME ( #50, #200 ) ;
#5 = AXIS2_PLACEMENT_3D ( 'NONE', #42, #66, #154 ) ;
#6 = AXIS2_PLACEMENT_3D ( 'NONE', #275, #215, #132 ) ;
#7 = CC_DESIGN_PERSON_AND_ORGANIZATION_ASSIGNMENT ( #28, #198, ( #30 ) ) ;
#8 = EDGE_LOOP ( 'NONE', ( #100, #226, #182 ) ) ;
#9 = AXIS2_PLACEMENT_3D ( 'NONE', #129, #110, #195 ) ;
#10 = ORIENTED_EDGE ( 'NONE', *, *, #51, .T. ) ;
#11 = ORIENTED_EDGE ( 'NONE', *, *, #31, .F. ) ;
#12 = DIRECTION ( 'NONE',  ( -3.491481338843133355E-15, 1.224646799147353207E-16, -1.000000000000000000 ) ) ;
#13 = LOCAL_TIME ( 10, 21, 50.00000000000000000, #175 ) ;
#14 = MECHANICAL_CONTEXT ( 'NONE', #216, 'mechanical' ) ;
#15 = DIRECTION ( 'NONE',  ( 0.0000000000000000000, 1.000000000000000000, 0.0000000000000000000 ) ) ;
#16 = PLANE ( 'NONE',  #204 ) ;
#17 = ORIENTED_EDGE ( 'NONE', *, *, #31, .T. ) ;
#18 = DIRECTION ( 'NONE',  ( 0.0000000000000000000, 1.000000000000000000, 0.0000000000000000000 ) ) ;
#19 = CARTESIAN_POINT ( 'NONE',  ( 0.0000000000000000000, 0.0000000000000000000, 0.0000000000000000000 ) ) ;
#20 = DIRECTION ( 'NONE',  ( 5.135813185032640035E-31, 1.000000000000000000, 1.445602896647342368E-16 ) ) ;
#21 = PERSON_AND_ORGANIZATION ( #118, #56 ) ;
#22 = CARTESIAN_POINT ( 'NONE',  ( 3.673940397442043598E-16, -2.999999999999997335, -3.673940397442069236E-16 ) ) ;
#23 = PERSON_AND_ORGANIZATION_ROLE ( 'creator' ) ;
#24 = EDGE_CURVE ( 'NONE', #209, #205, #73, .T. ) ;
#25 = PRODUCT ( '48813', '48813', '', ( #14 ) ) ;
#26 = AXIS2_PLACEMENT_3D ( 'NONE', #149, #189, #60 ) ;
#27 = COORDINATED_UNIVERSAL_TIME_OFFSET ( 1, 0, .AHEAD. ) ;
#28 = PERSON_AND_ORGANIZATION ( #118, #56 ) ;
#29 = ADVANCED_BREP_SHAPE_REPRESENTATION ( '48813', ( #238, #146, #45 ), #199 ) ;
#30 = SECURITY_CLASSIFICATION ( '', '', #138 ) ;
#31 = EDGE_CURVE ( 'NONE', #96, #276, #76, .T. ) ;
#32 = EDGE_CURVE ( 'NONE', #161, #141, #185, .T. ) ;
#33 = VERTEX_POINT ( 'NONE', #82 ) ;
#34 = VECTOR ( 'NONE', #274, 1000.000000000000000 ) ;
#35 = ORIENTED_EDGE ( 'NONE', *, *, #250, .F. ) ;
#36 = CARTESIAN_POINT ( 'NONE',  ( 1.969195475107526960E-13, -6.907007947191071191E-15, 56.39999999999999147 ) ) ;
#37 = VECTOR ( 'NONE', #151, 1000.000000000000000 ) ;
#38 = CARTESIAN_POINT ( 'NONE',  ( 1.982976465481754348E-13, -2.400000000000007905, 57.00000000000000711 ) ) ;
#39 =( NAMED_UNIT ( * ) PLANE_ANGLE_UNIT ( ) SI_UNIT ( $, .RADIAN. ) );
#40 = DIRECTION ( 'NONE',  ( -3.491481338843133355E-15, 1.224646799147353207E-16, -1.000000000000000000 ) ) ;
#41 = CARTESIAN_POINT ( 'NONE',  ( 1.047444401652949473E-14, -3.673940397442092409E-16, 3.000000000000027089 ) ) ;
#42 = CARTESIAN_POINT ( 'NONE',  ( 1.047444401652949473E-14, -3.673940397442092409E-16, 3.000000000000027089 ) ) ;
#43 = PERSON_AND_ORGANIZATION ( #118, #56 ) ;
#44 = DIRECTION ( 'NONE',  ( -4.275831445896958607E-31, -1.000000000000000000, -1.224646799147353207E-16 ) ) ;
#45 = AXIS2_PLACEMENT_3D ( 'NONE', #19, #260, #283 ) ;
#46 = APPROVAL_PERSON_ORGANIZATION ( #244, #200, #266 ) ;
#47 =( NAMED_UNIT ( * ) SI_UNIT ( $, .STERADIAN. ) SOLID_ANGLE_UNIT ( ) );
#48 = CARTESIAN_POINT ( 'NONE',  ( 1.047444401652949315E-14, -2.999999999999993783, 3.000000000000026645 ) ) ;
#49 = CLOSED_SHELL ( 'NONE', ( #247, #271, #152, #284, #180, #2 ) ) ;
#50 = DATE_AND_TIME ( #115, #224 ) ;
#51 = EDGE_CURVE ( 'NONE', #205, #209, #153, .T. ) ;
#52 = EDGE_CURVE ( 'NONE', #96, #33, #131, .T. ) ;
#53 = ORIENTED_EDGE ( 'NONE', *, *, #52, .F. ) ;
#54 = APPLICATION_CONTEXT ( 'configuration controlled 3d designs of mechanical parts and assemblies' ) ;
#55 = EDGE_LOOP ( 'NONE', ( #71, #35 ) ) ;
#56 = ORGANIZATION ( 'UNSPECIFIED', 'UNSPECIFIED', '' ) ;
#57 = EDGE_LOOP ( 'NONE', ( #143, #225, #142 ) ) ;
#58 = EDGE_CURVE ( 'NONE', #141, #248, #67, .T. ) ;
#59 = VERTEX_POINT ( 'NONE', #106 ) ;
#60 = DIRECTION ( 'NONE',  ( -5.135813185032640035E-31, -1.000000000000000000, -1.445602896647342368E-16 ) ) ;
#61 = FACE_OUTER_BOUND ( 'NONE', #270, .T. ) ;
#62 = CIRCLE ( 'NONE', #222, 3.000000000000000888 ) ;
#63 = CARTESIAN_POINT ( 'NONE',  ( 1.047444401652949631E-14, 2.249639673992780938E-32, 3.000000000000027534 ) ) ;
#64 = CARTESIAN_POINT ( 'NONE',  ( 1.990144363140586391E-13, 2.399999999999994138, 57.00000000000000711 ) ) ;
#65 = DIRECTION ( 'NONE',  ( -4.275831445896958607E-31, -1.000000000000000000, -1.224646799147353207E-16 ) ) ;
#66 = DIRECTION ( 'NONE',  ( -3.491481338843133355E-15, 1.224646799147353207E-16, -1.000000000000000000 ) ) ;
#67 = CIRCLE ( 'NONE', #9, 2.999999999999993339 ) ;
#68 = CALENDAR_DATE ( 2021, 21, 9 ) ;
#69 = PERSON_AND_ORGANIZATION ( #118, #56 ) ;
#70 = PRODUCT_DEFINITION_SHAPE ( 'NONE', 'NONE',  #111 ) ;
#71 = ORIENTED_EDGE ( 'NONE', *, *, #58, .F. ) ;
#72 = CONICAL_SURFACE ( 'NONE', #287, 2.400000000000001243, 0.7853981633974338461 ) ;
#73 = CIRCLE ( 'NONE', #280, 2.400000000000001243 ) ;
#74 = EDGE_LOOP ( 'NONE', ( #177, #98 ) ) ;
#75 = CC_DESIGN_PERSON_AND_ORGANIZATION_ASSIGNMENT ( #1, #136, ( #139 ) ) ;
#76 = LINE ( 'NONE', #253, #251 ) ;
#77 = DIRECTION ( 'NONE',  ( 2.555445736705828601E-15, 0.7071067811865435759, 0.7071067811865515695 ) ) ;
#78 = DIRECTION ( 'NONE',  ( -3.491481338843133355E-15, 1.224646799147353207E-16, -1.000000000000000000 ) ) ;
#79 = FACE_OUTER_BOUND ( 'NONE', #8, .T. ) ;
#80 = ADVANCED_FACE ( 'NONE', ( #197 ), #264, .T. ) ;
#81 = DIRECTION ( 'NONE',  ( -3.491481338843133355E-15, 1.224646799147353207E-16, -1.000000000000000000 ) ) ;
#82 = CARTESIAN_POINT ( 'NONE',  ( 1.040643898033850957E-13, -3.000000000000007550, 56.39999999999999147 ) ) ;
#83 = AXIS2_PLACEMENT_3D ( 'NONE', #88, #172, #263 ) ;
#84 = DIRECTION ( 'NONE',  ( 0.0000000000000000000, 1.000000000000000000, 0.0000000000000000000 ) ) ;
#85 = PERSON_AND_ORGANIZATION ( #118, #56 ) ;
#86 = LINE ( 'NONE', #22, #123 ) ;
#87 = CALENDAR_DATE ( 2021, 21, 9 ) ;
#88 = CARTESIAN_POINT ( 'NONE',  ( 1.990144363140586391E-13, -6.980486755139914489E-15, 57.00000000000000711 ) ) ;
#89 = PRODUCT_RELATED_PRODUCT_CATEGORY ( 'detail', '', ( #25 ) ) ;
#90 = CALENDAR_DATE ( 2021, 21, 9 ) ;
#91 = COORDINATED_UNIVERSAL_TIME_OFFSET ( 1, 0, .AHEAD. ) ;
#92 = DATE_TIME_ROLE ( 'creation_date' ) ;
#93 = CC_DESIGN_APPROVAL ( #176, ( #111 ) ) ;
#94 = ORIENTED_EDGE ( 'NONE', *, *, #242, .F. ) ;
#95 = CIRCLE ( 'NONE', #206, 2.999999999999993339 ) ;
#96 = VERTEX_POINT ( 'NONE', #230 ) ;
#97 = CC_DESIGN_DATE_AND_TIME_ASSIGNMENT ( #174, #92, ( #111 ) ) ;
#98 = ORIENTED_EDGE ( 'NONE', *, *, #203, .T. ) ;
#99 = CC_DESIGN_APPROVAL ( #186, ( #139 ) ) ;
#100 = ORIENTED_EDGE ( 'NONE', *, *, #255, .F. ) ;
#101 = ORIENTED_EDGE ( 'NONE', *, *, #103, .F. ) ;
#102 = DIRECTION ( 'NONE',  ( -3.491481338843133355E-15, 1.224646799147353207E-16, -1.000000000000000000 ) ) ;
#103 = EDGE_CURVE ( 'NONE', #33, #96, #62, .T. ) ;
#104 = FACE_OUTER_BOUND ( 'NONE', #256, .T. ) ;
#105 = CARTESIAN_POINT ( 'NONE',  ( 1.047444401652949315E-14, -2.999999999999993783, 3.000000000000026645 ) ) ;
#106 = CARTESIAN_POINT ( 'NONE',  ( 1.040643898033852472E-13, -2.999999999999993783, 3.000000000000026645 ) ) ;
#107 = CONICAL_SURFACE ( 'NONE', #6, 2.999999999999993339, 0.7853981633974427279 ) ;
#108 = DIRECTION ( 'NONE',  ( -3.491481338843133355E-15, 1.224646799147353207E-16, -1.000000000000000000 ) ) ;
#109 = APPROVAL_STATUS ( 'not_yet_approved' ) ;
#110 = DIRECTION ( 'NONE',  ( -3.491481338843133355E-15, 1.224646799147353207E-16, -1.000000000000000000 ) ) ;
#111 = PRODUCT_DEFINITION ( 'UNKNOWN', '', #139, #262 ) ;
#112 = CARTESIAN_POINT ( 'NONE',  ( 1.993083515458539934E-13, -2.400000000000007905, 57.00000000000000711 ) ) ;
#113 = APPROVAL_DATE_TIME ( #155, #186 ) ;
#114 = APPROVAL_PERSON_ORGANIZATION ( #3, #186, #267 ) ;
#115 = CALENDAR_DATE ( 2021, 21, 9 ) ;
#116 = PERSON_AND_ORGANIZATION_ROLE ( 'design_supplier' ) ;
#117 = APPROVAL_PERSON_ORGANIZATION ( #43, #176, #196 ) ;
#118 = PERSON ( 'UNSPECIFIED', 'UNSPECIFIED', 'UNSPECIFIED', ('UNSPECIFIED'), ('UNSPECIFIED'), ('UNSPECIFIED') ) ;
#119 = ORIENTED_EDGE ( 'NONE', *, *, #103, .T. ) ;
#120 = LOCAL_TIME ( 10, 21, 50.00000000000000000, #91 ) ;
#121 = EDGE_LOOP ( 'NONE', ( #191, #165, #53, #207 ) ) ;
#122 = ORIENTED_EDGE ( 'NONE', *, *, #203, .F. ) ;
#123 = VECTOR ( 'NONE', #233, 1000.000000000000000 ) ;
#124 = DIRECTION ( 'NONE',  ( 4.275831445896958607E-31, 1.000000000000000000, 1.224646799147353207E-16 ) ) ;
#125 = CYLINDRICAL_SURFACE ( 'NONE', #167, 2.999999999999997335 ) ;
#126 = DIRECTION ( 'NONE',  ( 0.0000000000000000000, 1.000000000000000000, 0.0000000000000000000 ) ) ;
#127 = CARTESIAN_POINT ( 'NONE',  ( 1.990144363140586391E-13, -6.980486755139914489E-15, 57.00000000000000711 ) ) ;
#128 = CYLINDRICAL_SURFACE ( 'NONE', #269, 2.999999999999997335 ) ;
#129 = CARTESIAN_POINT ( 'NONE',  ( 1.047444401652949473E-14, -3.673940397442092409E-16, 3.000000000000027089 ) ) ;
#130 = AXIS2_PLACEMENT_3D ( 'NONE', #63, #235, #65 ) ;
#131 = CIRCLE ( 'NONE', #159, 3.000000000000000888 ) ;
#132 = DIRECTION ( 'NONE',  ( -5.135813185032640035E-31, -1.000000000000000000, -1.445602896647342368E-16 ) ) ;
#133 = EDGE_CURVE ( 'NONE', #33, #59, #86, .T. ) ;
#134 = COORDINATED_UNIVERSAL_TIME_OFFSET ( 1, 0, .AHEAD. ) ;
#135 = CARTESIAN_POINT ( 'NONE',  ( 1.084183805627370175E-14, 2.999999999999993339, 3.000000000000027534 ) ) ;
#136 = PERSON_AND_ORGANIZATION_ROLE ( 'creator' ) ;
#137 = ADVANCED_FACE ( 'NONE', ( #168 ), #16, .T. ) ;
#138 = SECURITY_CLASSIFICATION_LEVEL ( 'unclassified' ) ;
#139 = PRODUCT_DEFINITION_FORMATION_WITH_SPECIFIED_SOURCE ( 'ANY', '', #25, .NOT_KNOWN. ) ;
#140 = EDGE_CURVE ( 'NONE', #209, #96, #170, .T. ) ;
#141 = VERTEX_POINT ( 'NONE', #48 ) ;
#142 = ORIENTED_EDGE ( 'NONE', *, *, #250, .T. ) ;
#143 = ORIENTED_EDGE ( 'NONE', *, *, #32, .F. ) ;
#144 = CARTESIAN_POINT ( 'NONE',  ( 1.990144363140586391E-13, -6.980486755139914489E-15, 57.00000000000000711 ) ) ;
#145 = CARTESIAN_POINT ( 'NONE',  ( 1.084183805627370175E-14, 2.999999999999993339, 3.000000000000027534 ) ) ;
#146 = MANIFOLD_SOLID_BREP ( 'Corps-Déplacer/Copier1[2]', #179 ) ;
#147 = CIRCLE ( 'NONE', #258, 2.999999999999993339 ) ;
#148 = PLANE ( 'NONE',  #194 ) ;
#149 = CARTESIAN_POINT ( 'NONE',  ( 1.047444401652949473E-14, -3.673940397442092409E-16, 3.000000000000027089 ) ) ;
#150 = DIRECTION ( 'NONE',  ( 0.0000000000000000000, 1.000000000000000000, 0.0000000000000000000 ) ) ;
#151 = DIRECTION ( 'NONE',  ( -2.382254525458753363E-15, -0.7071067811865372477, -0.7071067811865578978 ) ) ;
#152 = ADVANCED_FACE ( 'NONE', ( #279 ), #282, .F. ) ;
#153 = CIRCLE ( 'NONE', #246, 2.400000000000001243 ) ;
#154 = DIRECTION ( 'NONE',  ( 5.135813185032640035E-31, 1.000000000000000000, 1.445602896647342368E-16 ) ) ;
#155 = DATE_AND_TIME ( #201, #13 ) ;
#156 = DATE_TIME_ROLE ( 'classification_date' ) ;
#157 = VECTOR ( 'NONE', #192, 1000.000000000000000 ) ;
#158 = ORIENTED_EDGE ( 'NONE', *, *, #51, .F. ) ;
#159 = AXIS2_PLACEMENT_3D ( 'NONE', #36, #188, #150 ) ;
#160 = CC_DESIGN_DATE_AND_TIME_ASSIGNMENT ( #173, #156, ( #30 ) ) ;
#161 = VERTEX_POINT ( 'NONE', #261 ) ;
#162 = CONICAL_SURFACE ( 'NONE', #83, 2.400000000000001243, 0.7853981633974338461 ) ;
#163 = ORIENTED_EDGE ( 'NONE', *, *, #133, .T. ) ;
#164 = FACE_OUTER_BOUND ( 'NONE', #278, .T. ) ;
#165 = ORIENTED_EDGE ( 'NONE', *, *, #193, .T. ) ;
#166 = FACE_OUTER_BOUND ( 'NONE', #121, .T. ) ;
#167 = AXIS2_PLACEMENT_3D ( 'NONE', #265, #81, #281 ) ;
#168 = FACE_OUTER_BOUND ( 'NONE', #55, .T. ) ;
#169 = DIRECTION ( 'NONE',  ( -3.491481338843133355E-15, 1.224646799147353207E-16, -1.000000000000000000 ) ) ;
#170 = LINE ( 'NONE', #254, #157 ) ;
#171 = DATE_AND_TIME ( #87, #245 ) ;
#172 = DIRECTION ( 'NONE',  ( -3.491481338843133355E-15, 1.224646799147353207E-16, -1.000000000000000000 ) ) ;
#173 = DATE_AND_TIME ( #90, #272 ) ;
#174 = DATE_AND_TIME ( #68, #120 ) ;
#175 = COORDINATED_UNIVERSAL_TIME_OFFSET ( 1, 0, .AHEAD. ) ;
#176 = APPROVAL ( #109, 'UNSPECIFIED' ) ;
#177 = ORIENTED_EDGE ( 'NONE', *, *, #242, .T. ) ;
#178 = ORIENTED_EDGE ( 'NONE', *, *, #140, .T. ) ;
#179 = CLOSED_SHELL ( 'NONE', ( #80, #228, #137 ) ) ;
#180 = ADVANCED_FACE ( 'NONE', ( #217 ), #72, .T. ) ;
#181 = ORIENTED_EDGE ( 'NONE', *, *, #193, .F. ) ;
#182 = ORIENTED_EDGE ( 'NONE', *, *, #58, .T. ) ;
#183 = CIRCLE ( 'NONE', #5, 2.999999999999993339 ) ;
#184 = CC_DESIGN_APPROVAL ( #200, ( #30 ) ) ;
#185 = LINE ( 'NONE', #105, #34 ) ;
#186 = APPROVAL ( #223, 'UNSPECIFIED' ) ;
#187 = CARTESIAN_POINT ( 'NONE',  ( 0.0000000000000000000, 0.0000000000000000000, 0.0000000000000000000 ) ) ;
#188 = DIRECTION ( 'NONE',  ( -3.491481338843133355E-15, 1.224646799147353207E-16, -1.000000000000000000 ) ) ;
#189 = DIRECTION ( 'NONE',  ( 3.491481338843133355E-15, -1.224646799147353207E-16, 1.000000000000000000 ) ) ;
#190 = DIRECTION ( 'NONE',  ( 4.275831445896958607E-31, 1.000000000000000000, 1.224646799147353207E-16 ) ) ;
#191 = ORIENTED_EDGE ( 'NONE', *, *, #24, .T. ) ;
#192 = DIRECTION ( 'NONE',  ( -2.468850131082300448E-15, 0.7071067811865374697, -0.7071067811865576758 ) ) ;
#193 = EDGE_CURVE ( 'NONE', #205, #33, #237, .T. ) ;
#194 = AXIS2_PLACEMENT_3D ( 'NONE', #211, #12, #124 ) ;
#195 = DIRECTION ( 'NONE',  ( 5.135813185032640035E-31, 1.000000000000000000, 1.445602896647342368E-16 ) ) ;
#196 = APPROVAL_ROLE ( '' ) ;
#197 = FACE_OUTER_BOUND ( 'NONE', #57, .T. ) ;
#198 = PERSON_AND_ORGANIZATION_ROLE ( 'classification_officer' ) ;
#199 =( GEOMETRIC_REPRESENTATION_CONTEXT ( 3 ) GLOBAL_UNCERTAINTY_ASSIGNED_CONTEXT ( ( #286 ) ) GLOBAL_UNIT_ASSIGNED_CONTEXT ( ( #243, #39, #47 ) ) REPRESENTATION_CONTEXT ( 'NONE', 'WORKASPACE' ) );
#200 = APPROVAL ( #202, 'UNSPECIFIED' ) ;
#201 = CALENDAR_DATE ( 2021, 21, 9 ) ;
#202 = APPROVAL_STATUS ( 'not_yet_approved' ) ;
#203 = EDGE_CURVE ( 'NONE', #59, #276, #147, .T. ) ;
#204 = AXIS2_PLACEMENT_3D ( 'NONE', #210, #277, #44 ) ;
#205 = VERTEX_POINT ( 'NONE', #38 ) ;
#206 = AXIS2_PLACEMENT_3D ( 'NONE', #41, #219, #20 ) ;
#207 = ORIENTED_EDGE ( 'NONE', *, *, #140, .F. ) ;
#208 = ORIENTED_EDGE ( 'NONE', *, *, #133, .F. ) ;
#209 = VERTEX_POINT ( 'NONE', #64 ) ;
#210 = CARTESIAN_POINT ( 'NONE',  ( 1.047444401652949631E-14, 2.249639673992780938E-32, 3.000000000000027534 ) ) ;
#211 = CARTESIAN_POINT ( 'NONE',  ( 1.990144363140586391E-13, -1.647987302177965982E-13, 57.00000000000000711 ) ) ;
#212 = DIRECTION ( 'NONE',  ( -3.491481338843133355E-15, 1.224646799147353207E-16, -1.000000000000000000 ) ) ;
#213 = CC_DESIGN_PERSON_AND_ORGANIZATION_ASSIGNMENT ( #69, #116, ( #139 ) ) ;
#214 = APPLICATION_PROTOCOL_DEFINITION ( 'international standard', 'config_control_design', 1994, #216 ) ;
#215 = DIRECTION ( 'NONE',  ( 3.491481338843133355E-15, -1.224646799147353207E-16, 1.000000000000000000 ) ) ;
#216 = APPLICATION_CONTEXT ( 'configuration controlled 3d designs of mechanical parts and assemblies' ) ;
#217 = FACE_OUTER_BOUND ( 'NONE', #249, .T. ) ;
#218 = APPLICATION_PROTOCOL_DEFINITION ( 'international standard', 'config_control_design', 1994, #54 ) ;
#219 = DIRECTION ( 'NONE',  ( -3.491481338843133355E-15, 1.224646799147353207E-16, -1.000000000000000000 ) ) ;
#220 = SHAPE_DEFINITION_REPRESENTATION ( #70, #29 ) ;
#221 = COORDINATED_UNIVERSAL_TIME_OFFSET ( 1, 0, .AHEAD. ) ;
#222 = AXIS2_PLACEMENT_3D ( 'NONE', #285, #212, #18 ) ;
#223 = APPROVAL_STATUS ( 'not_yet_approved' ) ;
#224 = LOCAL_TIME ( 10, 21, 50.00000000000000000, #27 ) ;
#225 = ORIENTED_EDGE ( 'NONE', *, *, #255, .T. ) ;
#226 = ORIENTED_EDGE ( 'NONE', *, *, #32, .T. ) ;
#227 = VECTOR ( 'NONE', #77, 999.9999999999998863 ) ;
#228 = ADVANCED_FACE ( 'NONE', ( #79 ), #107, .T. ) ;
#229 = DIRECTION ( 'NONE',  ( -3.491481338843133355E-15, 1.224646799147353207E-16, -1.000000000000000000 ) ) ;
#230 = CARTESIAN_POINT ( 'NONE',  ( 1.969195475107526960E-13, 2.999999999999993783, 56.39999999999999147 ) ) ;
#231 = CARTESIAN_POINT ( 'NONE',  ( 1.990144363140586391E-13, -6.980486755139914489E-15, 57.00000000000000711 ) ) ;
#232 = CC_DESIGN_PERSON_AND_ORGANIZATION_ASSIGNMENT ( #85, #236, ( #25 ) ) ;
#233 = DIRECTION ( 'NONE',  ( -3.491481338843133355E-15, 1.224646799147353207E-16, -1.000000000000000000 ) ) ;
#234 = CARTESIAN_POINT ( 'NONE',  ( 1.047444401652949631E-14, 2.999999999999993339, 3.000000000000027534 ) ) ;
#235 = DIRECTION ( 'NONE',  ( 3.491481338843133355E-15, -1.224646799147353207E-16, 1.000000000000000000 ) ) ;
#236 = PERSON_AND_ORGANIZATION_ROLE ( 'design_owner' ) ;
#237 = LINE ( 'NONE', #112, #37 ) ;
#238 = MANIFOLD_SOLID_BREP ( 'Corps-Déplacer/Copier1[1]', #49 ) ;
#239 = CC_DESIGN_SECURITY_CLASSIFICATION ( #30, ( #139 ) ) ;
#240 = APPROVAL_DATE_TIME ( #171, #176 ) ;
#241 = LINE ( 'NONE', #135, #227 ) ;
#242 = EDGE_CURVE ( 'NONE', #276, #59, #95, .T. ) ;
#243 =( LENGTH_UNIT ( ) NAMED_UNIT ( * ) SI_UNIT ( .MILLI., .METRE. ) );
#244 = PERSON_AND_ORGANIZATION ( #118, #56 ) ;
#245 = LOCAL_TIME ( 10, 21, 50.00000000000000000, #134 ) ;
#246 = AXIS2_PLACEMENT_3D ( 'NONE', #144, #229, #15 ) ;
#247 = ADVANCED_FACE ( 'NONE', ( #166 ), #162, .T. ) ;
#248 = VERTEX_POINT ( 'NONE', #145 ) ;
#249 = EDGE_LOOP ( 'NONE', ( #181, #10, #178, #101 ) ) ;
#250 = EDGE_CURVE ( 'NONE', #248, #141, #183, .T. ) ;
#251 = VECTOR ( 'NONE', #40, 1000.000000000000000 ) ;
#252 = ORIENTED_EDGE ( 'NONE', *, *, #52, .T. ) ;
#253 = CARTESIAN_POINT ( 'NONE',  ( 1.282749433769086531E-30, 2.999999999999997335, 3.673940397442056417E-16 ) ) ;
#254 = CARTESIAN_POINT ( 'NONE',  ( 1.990144363140586391E-13, 2.399999999999994138, 57.00000000000000711 ) ) ;
#255 = EDGE_CURVE ( 'NONE', #161, #248, #241, .T. ) ;
#256 = EDGE_LOOP ( 'NONE', ( #208, #119, #17, #122 ) ) ;
#257 = CARTESIAN_POINT ( 'NONE',  ( 1.047444401652949473E-14, -3.673940397442092409E-16, 3.000000000000027089 ) ) ;
#258 = AXIS2_PLACEMENT_3D ( 'NONE', #257, #108, #259 ) ;
#259 = DIRECTION ( 'NONE',  ( 5.135813185032640035E-31, 1.000000000000000000, 1.445602896647342368E-16 ) ) ;
#260 = DIRECTION ( 'NONE',  ( 0.0000000000000000000, 0.0000000000000000000, 1.000000000000000000 ) ) ;
#261 = CARTESIAN_POINT ( 'NONE',  ( 0.0000000000000000000, 0.0000000000000000000, 0.0000000000000000000 ) ) ;
#262 = DESIGN_CONTEXT ( 'detailed design', #54, 'design' ) ;
#263 = DIRECTION ( 'NONE',  ( 0.0000000000000000000, 1.000000000000000000, 0.0000000000000000000 ) ) ;
#264 = CONICAL_SURFACE ( 'NONE', #26, 2.999999999999993339, 0.7853981633974427279 ) ;
#265 = CARTESIAN_POINT ( 'NONE',  ( 0.0000000000000000000, 0.0000000000000000000, 0.0000000000000000000 ) ) ;
#266 = APPROVAL_ROLE ( '' ) ;
#267 = APPROVAL_ROLE ( '' ) ;
#268 = CC_DESIGN_PERSON_AND_ORGANIZATION_ASSIGNMENT ( #21, #23, ( #111 ) ) ;
#269 = AXIS2_PLACEMENT_3D ( 'NONE', #187, #169, #190 ) ;
#270 = EDGE_LOOP ( 'NONE', ( #273, #158 ) ) ;
#271 = ADVANCED_FACE ( 'NONE', ( #164 ), #125, .T. ) ;
#272 = LOCAL_TIME ( 10, 21, 50.00000000000000000, #221 ) ;
#273 = ORIENTED_EDGE ( 'NONE', *, *, #24, .F. ) ;
#274 = DIRECTION ( 'NONE',  ( 2.468850131082278754E-15, -0.7071067811865436870, 0.7071067811865513475 ) ) ;
#275 = CARTESIAN_POINT ( 'NONE',  ( 1.047444401652949473E-14, -3.673940397442092409E-16, 3.000000000000027089 ) ) ;
#276 = VERTEX_POINT ( 'NONE', #234 ) ;
#277 = DIRECTION ( 'NONE',  ( 3.491481338843133355E-15, -1.224646799147353207E-16, 1.000000000000000000 ) ) ;
#278 = EDGE_LOOP ( 'NONE', ( #252, #163, #94, #11 ) ) ;
#279 = FACE_OUTER_BOUND ( 'NONE', #74, .T. ) ;
#280 = AXIS2_PLACEMENT_3D ( 'NONE', #231, #78, #126 ) ;
#281 = DIRECTION ( 'NONE',  ( 4.275831445896958607E-31, 1.000000000000000000, 1.224646799147353207E-16 ) ) ;
#282 = PLANE ( 'NONE',  #130 ) ;
#283 = DIRECTION ( 'NONE',  ( 1.000000000000000000, 0.0000000000000000000, 0.0000000000000000000 ) ) ;
#284 = ADVANCED_FACE ( 'NONE', ( #104 ), #128, .T. ) ;
#285 = CARTESIAN_POINT ( 'NONE',  ( 1.969195475107526960E-13, -6.907007947191071191E-15, 56.39999999999999147 ) ) ;
#286 = UNCERTAINTY_MEASURE_WITH_UNIT (LENGTH_MEASURE( 1.000000000000000082E-05 ), #243, 'distance_accuracy_value', 'NONE');
#287 = AXIS2_PLACEMENT_3D ( 'NONE', #127, #102, #84 ) ;
ENDSEC;
END-ISO-10303-21;
