ISO-10303-21;
HEADER;
FILE_DESCRIPTION (( 'STEP AP203' ),
    '1' );
FILE_NAME ('48709.step',
    '2021-10-08T05:53:55',
    ( '' ),
    ( '' ),
    'SwSTEP 2.0',
    'SolidWorks 2019',
    '' );
FILE_SCHEMA (( 'CONFIG_CONTROL_DESIGN' ));
ENDSEC;

DATA;
#1 = APPROVAL_STATUS ( 'not_yet_approved' ) ;
#2 = CONICAL_SURFACE ( 'NONE', #217, 0.7499999999999975575, 0.5235987755982939307 ) ;
#3 = CIRCLE ( 'NONE', #127, 0.5049999999999987832 ) ;
#4 = EDGE_CURVE ( 'NONE', #220, #220, #3, .T. ) ;
#5 = ORIENTED_EDGE ( 'NONE', *, *, #119, .T. ) ;
#6 = EDGE_LOOP ( 'NONE', ( #105 ) ) ;
#7 = LOCAL_TIME ( 7, 53, 55.00000000000000000, #189 ) ;
#8 = DATE_TIME_ROLE ( 'classification_date' ) ;
#9 = CARTESIAN_POINT ( 'NONE',  ( 1.017982883880086615E-15, -3.570603303707219335E-17, 0.2915618859407637098 ) ) ;
#10 = DIRECTION ( 'NONE',  ( 3.491481338843133355E-15, -1.224646799147353207E-16, 1.000000000000000000 ) ) ;
#11 = DIRECTION ( 'NONE',  ( 3.491481338843133355E-15, -1.224646799147353207E-16, 1.000000000000000000 ) ) ;
#12 = CARTESIAN_POINT ( 'NONE',  ( 0.0000000000000000000, 0.0000000000000000000, 0.0000000000000000000 ) ) ;
#13 = CC_DESIGN_PERSON_AND_ORGANIZATION_ASSIGNMENT ( #161, #71, ( #100 ) ) ;
#14 = CARTESIAN_POINT ( 'NONE',  ( 3.142333204958820020E-14, 3.786893451221170891E-33, 9.000000000000000000 ) ) ;
#15 = CARTESIAN_POINT ( 'NONE',  ( 1.047444401652940007E-13, 0.5499999999999963807, 30.00000000000000000 ) ) ;
#16 = DATE_TIME_ROLE ( 'creation_date' ) ;
#17 = SECURITY_CLASSIFICATION_LEVEL ( 'unclassified' ) ;
#18 = APPROVAL ( #144, 'UNSPECIFIED' ) ;
#19 = AXIS2_PLACEMENT_3D ( 'NONE', #12, #31, #218 ) ;
#20 = ORIENTED_EDGE ( 'NONE', *, *, #115, .T. ) ;
#21 = CC_DESIGN_DATE_AND_TIME_ASSIGNMENT ( #143, #8, ( #174 ) ) ;
#22 = PERSON ( 'UNSPECIFIED', 'UNSPECIFIED', 'UNSPECIFIED', ('UNSPECIFIED'), ('UNSPECIFIED'), ('UNSPECIFIED') ) ;
#23 = ORIENTED_EDGE ( 'NONE', *, *, #119, .F. ) ;
#24 = CARTESIAN_POINT ( 'NONE',  ( 3.142333204958820020E-14, -1.102182119232617714E-15, 9.000000000000000000 ) ) ;
#25 = PRODUCT_DEFINITION_SHAPE ( 'NONE', 'NONE',  #178 ) ;
#26 = FACE_OUTER_BOUND ( 'NONE', #201, .T. ) ;
#27 = APPROVAL ( #1, 'UNSPECIFIED' ) ;
#28 = COORDINATED_UNIVERSAL_TIME_OFFSET ( 1, 0, .AHEAD. ) ;
#29 = FACE_BOUND ( 'NONE', #85, .T. ) ;
#30 = CARTESIAN_POINT ( 'NONE',  ( 1.017982883880086615E-15, -3.570603303707219335E-17, 0.2915618859407637098 ) ) ;
#31 = DIRECTION ( 'NONE',  ( -3.491481338843133355E-15, 1.224646799147353207E-16, -1.000000000000000000 ) ) ;
#32 = CC_DESIGN_APPROVAL ( #18, ( #174 ) ) ;
#33 = CIRCLE ( 'NONE', #124, 0.7499999999999975575 ) ;
#34 = APPROVAL_ROLE ( '' ) ;
#35 = CARTESIAN_POINT ( 'NONE',  ( 3.142333204958820020E-14, 0.5049999999999985612, 9.000000000000000000 ) ) ;
#36 = ORGANIZATION ( 'UNSPECIFIED', 'UNSPECIFIED', '' ) ;
#37 = CARTESIAN_POINT ( 'NONE',  ( 3.142333204958820020E-14, 0.5049999999999985612, 9.000000000000000000 ) ) ;
#38 = CALENDAR_DATE ( 2021, 8, 10 ) ;
#39 = CC_DESIGN_APPROVAL ( #27, ( #100 ) ) ;
#40 = EDGE_LOOP ( 'NONE', ( #181 ) ) ;
#41 = ADVANCED_FACE ( 'NONE', ( #199 ), #48, .T. ) ;
#42 = EDGE_LOOP ( 'NONE', ( #5 ) ) ;
#43 = CC_DESIGN_APPROVAL ( #53, ( #178 ) ) ;
#44 = PERSON_AND_ORGANIZATION_ROLE ( 'classification_officer' ) ;
#45 = UNCERTAINTY_MEASURE_WITH_UNIT (LENGTH_MEASURE( 1.000000000000000082E-05 ), #98, 'distance_accuracy_value', 'NONE');
#46 = ORIENTED_EDGE ( 'NONE', *, *, #141, .T. ) ;
#47 = DIRECTION ( 'NONE',  ( -3.491481338843133355E-15, 1.224646799147353207E-16, -1.000000000000000000 ) ) ;
#48 = PLANE ( 'NONE',  #65 ) ;
#49 = LOCAL_TIME ( 7, 53, 55.00000000000000000, #28 ) ;
#50 = DIRECTION ( 'NONE',  ( 3.491481338843133355E-15, -1.224646799147353207E-16, 1.000000000000000000 ) ) ;
#51 = DIRECTION ( 'NONE',  ( -4.275831445896958607E-31, -1.000000000000000000, -1.224646799147353207E-16 ) ) ;
#52 = PERSON_AND_ORGANIZATION ( #22, #36 ) ;
#53 = APPROVAL ( #153, 'UNSPECIFIED' ) ;
#54 = PERSON_AND_ORGANIZATION_ROLE ( 'design_owner' ) ;
#55 = PERSON_AND_ORGANIZATION ( #22, #36 ) ;
#56 = PRODUCT_RELATED_PRODUCT_CATEGORY ( 'detail', '', ( #104 ) ) ;
#57 = EDGE_LOOP ( 'NONE', ( #46 ) ) ;
#58 = DIRECTION ( 'NONE',  ( -3.491481338843133355E-15, 1.224646799147353207E-16, -1.000000000000000000 ) ) ;
#59 = ADVANCED_FACE ( 'NONE', ( #26, #131 ), #216, .T. ) ;
#60 = CYLINDRICAL_SURFACE ( 'NONE', #19, 0.5049999999999991163 ) ;
#61 = APPROVAL_PERSON_ORGANIZATION ( #64, #53, #223 ) ;
#62 = CARTESIAN_POINT ( 'NONE',  ( 1.047444401652940007E-13, -3.673940397442059178E-15, 30.00000000000000000 ) ) ;
#63 = DIRECTION ( 'NONE',  ( 4.275831445896959482E-31, 1.000000000000000000, 1.224646799147353207E-16 ) ) ;
#64 = PERSON_AND_ORGANIZATION ( #22, #36 ) ;
#65 = AXIS2_PLACEMENT_3D ( 'NONE', #130, #112, #77 ) ;
#66 = DIRECTION ( 'NONE',  ( 1.000000000000000000, 0.0000000000000000000, 0.0000000000000000000 ) ) ;
#67 = CALENDAR_DATE ( 2021, 8, 10 ) ;
#68 = APPROVAL_PERSON_ORGANIZATION ( #158, #27, #34 ) ;
#69 = CLOSED_SHELL ( 'NONE', ( #190, #162, #59, #86, #214 ) ) ;
#70 = DIRECTION ( 'NONE',  ( 0.0000000000000000000, 0.0000000000000000000, 1.000000000000000000 ) ) ;
#71 = PERSON_AND_ORGANIZATION_ROLE ( 'creator' ) ;
#72 = ORIENTED_EDGE ( 'NONE', *, *, #89, .T. ) ;
#73 = CC_DESIGN_PERSON_AND_ORGANIZATION_ASSIGNMENT ( #138, #44, ( #174 ) ) ;
#74 = CARTESIAN_POINT ( 'NONE',  ( 1.047444401652940007E-13, -3.673940397442059178E-15, 30.00000000000000000 ) ) ;
#75 = CARTESIAN_POINT ( 'NONE',  ( 3.142333204958820020E-14, -1.102182119232617714E-15, 9.000000000000000000 ) ) ;
#76 = FACE_OUTER_BOUND ( 'NONE', #6, .T. ) ;
#77 = DIRECTION ( 'NONE',  ( -4.275831445896958607E-31, -1.000000000000000000, -1.224646799147353207E-16 ) ) ;
#78 = FACE_OUTER_BOUND ( 'NONE', #94, .T. ) ;
#79 = PERSON_AND_ORGANIZATION ( #22, #36 ) ;
#80 = VERTEX_POINT ( 'NONE', #35 ) ;
#81 = DESIGN_CONTEXT ( 'detailed design', #139, 'design' ) ;
#82 =( GEOMETRIC_REPRESENTATION_CONTEXT ( 3 ) GLOBAL_UNCERTAINTY_ASSIGNED_CONTEXT ( ( #45 ) ) GLOBAL_UNIT_ASSIGNED_CONTEXT ( ( #98, #207, #208 ) ) REPRESENTATION_CONTEXT ( 'NONE', 'WORKASPACE' ) );
#83 = DATE_AND_TIME ( #168, #193 ) ;
#84 = CONICAL_SURFACE ( 'NONE', #202, 0.5500000000000000444, 0.7853981633974512766 ) ;
#85 = EDGE_LOOP ( 'NONE', ( #140 ) ) ;
#86 = ADVANCED_FACE ( 'NONE', ( #204, #29 ), #84, .T. ) ;
#87 = DIRECTION ( 'NONE',  ( -3.813722662152951254E-31, -1.000000000000000000, -1.073467497510402955E-16 ) ) ;
#88 = CARTESIAN_POINT ( 'NONE',  ( 0.0000000000000000000, 0.0000000000000000000, 0.0000000000000000000 ) ) ;
#89 = EDGE_CURVE ( 'NONE', #173, #173, #164, .T. ) ;
#90 = AXIS2_PLACEMENT_3D ( 'NONE', #88, #132, #63 ) ;
#91 = COORDINATED_UNIVERSAL_TIME_OFFSET ( 1, 0, .AHEAD. ) ;
#92 = FACE_OUTER_BOUND ( 'NONE', #57, .T. ) ;
#93 = DIRECTION ( 'NONE',  ( -3.491481338843133355E-15, 1.224646799147353207E-16, -1.000000000000000000 ) ) ;
#94 = EDGE_LOOP ( 'NONE', ( #167 ) ) ;
#95 = ADVANCED_FACE ( 'NONE', ( #78 ), #113, .T. ) ;
#96 = CARTESIAN_POINT ( 'NONE',  ( 1.047444401652940007E-13, 4.124339402320052999E-33, 30.00000000000000000 ) ) ;
#97 = VERTEX_POINT ( 'NONE', #206 ) ;
#98 =( LENGTH_UNIT ( ) NAMED_UNIT ( * ) SI_UNIT ( .MILLI., .METRE. ) );
#99 = CC_DESIGN_PERSON_AND_ORGANIZATION_ASSIGNMENT ( #180, #211, ( #100 ) ) ;
#100 = PRODUCT_DEFINITION_FORMATION_WITH_SPECIFIED_SOURCE ( 'ANY', '', #104, .NOT_KNOWN. ) ;
#101 = APPLICATION_PROTOCOL_DEFINITION ( 'international standard', 'config_control_design', 1994, #135 ) ;
#102 = DATE_AND_TIME ( #194, #7 ) ;
#103 = EDGE_LOOP ( 'NONE', ( #72 ) ) ;
#104 = PRODUCT ( '48709', '48709', '', ( #175 ) ) ;
#105 = ORIENTED_EDGE ( 'NONE', *, *, #4, .F. ) ;
#106 = CC_DESIGN_SECURITY_CLASSIFICATION ( #174, ( #100 ) ) ;
#107 = COORDINATED_UNIVERSAL_TIME_OFFSET ( 1, 0, .AHEAD. ) ;
#108 = DIRECTION ( 'NONE',  ( -3.491481338843133355E-15, 1.224646799147353207E-16, -1.000000000000000000 ) ) ;
#109 = CARTESIAN_POINT ( 'NONE',  ( 3.290495070236415207E-14, -1.154150305930138373E-15, 9.424352447854374759 ) ) ;
#110 = DIRECTION ( 'NONE',  ( 0.0000000000000000000, 1.000000000000000000, 0.0000000000000000000 ) ) ;
#111 = DIRECTION ( 'NONE',  ( 0.0000000000000000000, 1.000000000000000000, 0.0000000000000000000 ) ) ;
#112 = DIRECTION ( 'NONE',  ( 3.491481338843133355E-15, -1.224646799147353207E-16, 1.000000000000000000 ) ) ;
#113 = CONICAL_SURFACE ( 'NONE', #195, 0.5049999999999987832, 1.047197551196592746 ) ;
#114 = FACE_OUTER_BOUND ( 'NONE', #40, .T. ) ;
#115 = EDGE_CURVE ( 'NONE', #172, #172, #155, .T. ) ;
#116 = CARTESIAN_POINT ( 'NONE',  ( 1.017982883880086812E-15, 0.5049999999999987832, 0.2915618859407637653 ) ) ;
#117 = AXIS2_PLACEMENT_3D ( 'NONE', #24, #150, #110 ) ;
#118 = PERSON_AND_ORGANIZATION_ROLE ( 'creator' ) ;
#119 = EDGE_CURVE ( 'NONE', #80, #80, #221, .T. ) ;
#120 = MANIFOLD_SOLID_BREP ( 'Corps-Déplacer/Copier1[1]', #69 ) ;
#121 = APPROVAL_DATE_TIME ( #183, #18 ) ;
#122 = MANIFOLD_SOLID_BREP ( 'Corps-Déplacer/Copier1[2]', #133 ) ;
#123 = LOCAL_TIME ( 7, 53, 55.00000000000000000, #222 ) ;
#124 = AXIS2_PLACEMENT_3D ( 'NONE', #109, #93, #184 ) ;
#125 = ORIENTED_EDGE ( 'NONE', *, *, #115, .F. ) ;
#126 = CC_DESIGN_PERSON_AND_ORGANIZATION_ASSIGNMENT ( #52, #118, ( #178 ) ) ;
#127 = AXIS2_PLACEMENT_3D ( 'NONE', #9, #108, #187 ) ;
#128 = ORIENTED_EDGE ( 'NONE', *, *, #141, .F. ) ;
#129 = DIRECTION ( 'NONE',  ( 0.0000000000000000000, 1.000000000000000000, 0.0000000000000000000 ) ) ;
#130 = CARTESIAN_POINT ( 'NONE',  ( 3.142333204958820020E-14, 3.786893451221170891E-33, 9.000000000000000000 ) ) ;
#131 = FACE_OUTER_BOUND ( 'NONE', #165, .T. ) ;
#132 = DIRECTION ( 'NONE',  ( -3.491481338843133355E-15, 1.224646799147353207E-16, -1.000000000000000000 ) ) ;
#133 = CLOSED_SHELL ( 'NONE', ( #95, #166, #41 ) ) ;
#134 = CARTESIAN_POINT ( 'NONE',  ( 1.040461438975253740E-13, 0.7499999999999963363, 29.80000000000000071 ) ) ;
#135 = APPLICATION_CONTEXT ( 'configuration controlled 3d designs of mechanical parts and assemblies' ) ;
#136 = DATE_AND_TIME ( #67, #123 ) ;
#137 = APPROVAL_DATE_TIME ( #136, #53 ) ;
#138 = PERSON_AND_ORGANIZATION ( #22, #36 ) ;
#139 = APPLICATION_CONTEXT ( 'configuration controlled 3d designs of mechanical parts and assemblies' ) ;
#140 = ORIENTED_EDGE ( 'NONE', *, *, #186, .T. ) ;
#141 = EDGE_CURVE ( 'NONE', #97, #97, #33, .T. ) ;
#142 = ADVANCED_BREP_SHAPE_REPRESENTATION ( '48709', ( #120, #122, #179 ), #82 ) ;
#143 = DATE_AND_TIME ( #148, #200 ) ;
#144 = APPROVAL_STATUS ( 'not_yet_approved' ) ;
#145 = CIRCLE ( 'NONE', #205, 0.5500000000000000444 ) ;
#146 = DIRECTION ( 'NONE',  ( 0.0000000000000000000, 1.000000000000000000, 0.0000000000000000000 ) ) ;
#147 = SHAPE_DEFINITION_REPRESENTATION ( #25, #142 ) ;
#148 = CALENDAR_DATE ( 2021, 8, 10 ) ;
#149 = FACE_OUTER_BOUND ( 'NONE', #42, .T. ) ;
#150 = DIRECTION ( 'NONE',  ( -3.491481338843133355E-15, 1.224646799147353207E-16, -1.000000000000000000 ) ) ;
#151 = AXIS2_PLACEMENT_3D ( 'NONE', #213, #58, #182 ) ;
#152 = FACE_BOUND ( 'NONE', #163, .T. ) ;
#153 = APPROVAL_STATUS ( 'not_yet_approved' ) ;
#154 = PLANE ( 'NONE',  #197 ) ;
#155 = CIRCLE ( 'NONE', #151, 0.7500000000000000000 ) ;
#156 = VERTEX_POINT ( 'NONE', #15 ) ;
#157 = APPLICATION_PROTOCOL_DEFINITION ( 'international standard', 'config_control_design', 1994, #139 ) ;
#158 = PERSON_AND_ORGANIZATION ( #22, #36 ) ;
#159 = CC_DESIGN_PERSON_AND_ORGANIZATION_ASSIGNMENT ( #79, #54, ( #104 ) ) ;
#160 = AXIS2_PLACEMENT_3D ( 'NONE', #14, #50, #51 ) ;
#161 = PERSON_AND_ORGANIZATION ( #22, #36 ) ;
#162 = ADVANCED_FACE ( 'NONE', ( #152, #92 ), #2, .T. ) ;
#163 = EDGE_LOOP ( 'NONE', ( #219 ) ) ;
#164 = CIRCLE ( 'NONE', #117, 0.5049999999999995604 ) ;
#165 = EDGE_LOOP ( 'NONE', ( #20 ) ) ;
#166 = ADVANCED_FACE ( 'NONE', ( #76, #149 ), #60, .T. ) ;
#167 = ORIENTED_EDGE ( 'NONE', *, *, #4, .T. ) ;
#168 = CALENDAR_DATE ( 2021, 8, 10 ) ;
#169 = CARTESIAN_POINT ( 'NONE',  ( 3.290495070236415207E-14, -1.154150305930138373E-15, 9.424352447854374759 ) ) ;
#170 = DIRECTION ( 'NONE',  ( 0.0000000000000000000, -1.000000000000000000, 0.0000000000000000000 ) ) ;
#171 = EDGE_LOOP ( 'NONE', ( #23 ) ) ;
#172 = VERTEX_POINT ( 'NONE', #134 ) ;
#173 = VERTEX_POINT ( 'NONE', #37 ) ;
#174 = SECURITY_CLASSIFICATION ( '', '', #17 ) ;
#175 = MECHANICAL_CONTEXT ( 'NONE', #135, 'mechanical' ) ;
#176 = DIRECTION ( 'NONE',  ( 4.275831445896958607E-31, 1.000000000000000000, 1.224646799147353207E-16 ) ) ;
#177 = APPROVAL_ROLE ( '' ) ;
#178 = PRODUCT_DEFINITION ( 'UNKNOWN', '', #100, #81 ) ;
#179 = AXIS2_PLACEMENT_3D ( 'NONE', #192, #70, #66 ) ;
#180 = PERSON_AND_ORGANIZATION ( #22, #36 ) ;
#181 = ORIENTED_EDGE ( 'NONE', *, *, #186, .F. ) ;
#182 = DIRECTION ( 'NONE',  ( 0.0000000000000000000, 1.000000000000000000, 0.0000000000000000000 ) ) ;
#183 = DATE_AND_TIME ( #38, #49 ) ;
#184 = DIRECTION ( 'NONE',  ( 0.0000000000000000000, 1.000000000000000000, 0.0000000000000000000 ) ) ;
#185 = AXIS2_PLACEMENT_3D ( 'NONE', #75, #215, #129 ) ;
#186 = EDGE_CURVE ( 'NONE', #156, #156, #145, .T. ) ;
#187 = DIRECTION ( 'NONE',  ( 3.813722662152951254E-31, 1.000000000000000000, 1.073467497510402955E-16 ) ) ;
#188 = FACE_OUTER_BOUND ( 'NONE', #103, .T. ) ;
#189 = COORDINATED_UNIVERSAL_TIME_OFFSET ( 1, 0, .AHEAD. ) ;
#190 = ADVANCED_FACE ( 'NONE', ( #188 ), #209, .F. ) ;
#191 = DIRECTION ( 'NONE',  ( -3.491481338843133355E-15, 1.224646799147353207E-16, -1.000000000000000000 ) ) ;
#192 = CARTESIAN_POINT ( 'NONE',  ( 0.0000000000000000000, 0.0000000000000000000, 0.0000000000000000000 ) ) ;
#193 = LOCAL_TIME ( 7, 53, 55.00000000000000000, #91 ) ;
#194 = CALENDAR_DATE ( 2021, 8, 10 ) ;
#195 = AXIS2_PLACEMENT_3D ( 'NONE', #30, #10, #87 ) ;
#196 = EDGE_LOOP ( 'NONE', ( #125 ) ) ;
#197 = AXIS2_PLACEMENT_3D ( 'NONE', #96, #191, #176 ) ;
#198 = APPROVAL_DATE_TIME ( #83, #27 ) ;
#199 = FACE_OUTER_BOUND ( 'NONE', #171, .T. ) ;
#200 = LOCAL_TIME ( 7, 53, 55.00000000000000000, #107 ) ;
#201 = EDGE_LOOP ( 'NONE', ( #128 ) ) ;
#202 = AXIS2_PLACEMENT_3D ( 'NONE', #74, #47, #146 ) ;
#203 = DIRECTION ( 'NONE',  ( -3.491481338843133355E-15, 1.224646799147353207E-16, -1.000000000000000000 ) ) ;
#204 = FACE_OUTER_BOUND ( 'NONE', #196, .T. ) ;
#205 = AXIS2_PLACEMENT_3D ( 'NONE', #62, #203, #111 ) ;
#206 = CARTESIAN_POINT ( 'NONE',  ( 3.290495070236415207E-14, 0.7499999999999963363, 9.424352447854374759 ) ) ;
#207 =( NAMED_UNIT ( * ) PLANE_ANGLE_UNIT ( ) SI_UNIT ( $, .RADIAN. ) );
#208 =( NAMED_UNIT ( * ) SI_UNIT ( $, .STERADIAN. ) SOLID_ANGLE_UNIT ( ) );
#209 = PLANE ( 'NONE',  #160 ) ;
#210 = APPROVAL_PERSON_ORGANIZATION ( #55, #18, #177 ) ;
#211 = PERSON_AND_ORGANIZATION_ROLE ( 'design_supplier' ) ;
#212 = CC_DESIGN_DATE_AND_TIME_ASSIGNMENT ( #102, #16, ( #178 ) ) ;
#213 = CARTESIAN_POINT ( 'NONE',  ( 1.040461438975253740E-13, -3.649447461459112464E-15, 29.80000000000000071 ) ) ;
#214 = ADVANCED_FACE ( 'NONE', ( #114 ), #154, .F. ) ;
#215 = DIRECTION ( 'NONE',  ( -3.491481338843133355E-15, 1.224646799147353207E-16, -1.000000000000000000 ) ) ;
#216 = CYLINDRICAL_SURFACE ( 'NONE', #90, 0.7499999999999986677 ) ;
#217 = AXIS2_PLACEMENT_3D ( 'NONE', #169, #11, #170 ) ;
#218 = DIRECTION ( 'NONE',  ( 4.275831445896958607E-31, 1.000000000000000000, 1.224646799147353454E-16 ) ) ;
#219 = ORIENTED_EDGE ( 'NONE', *, *, #89, .F. ) ;
#220 = VERTEX_POINT ( 'NONE', #116 ) ;
#221 = CIRCLE ( 'NONE', #185, 0.5049999999999995604 ) ;
#222 = COORDINATED_UNIVERSAL_TIME_OFFSET ( 1, 0, .AHEAD. ) ;
#223 = APPROVAL_ROLE ( '' ) ;
ENDSEC;
END-ISO-10303-21;
