ISO-10303-21;
HEADER;
FILE_DESCRIPTION (( 'STEP AP203' ),
    '1' );
FILE_NAME ('48094.step',
    '2021-11-01T10:35:24',
    ( '' ),
    ( '' ),
    'SwSTEP 2.0',
    'SolidWorks 2019',
    '' );
FILE_SCHEMA (( 'CONFIG_CONTROL_DESIGN' ));
ENDSEC;

DATA;
#1 = DIRECTION ( 'NONE',  ( 3.491481338843133355E-15, -1.224646799147353207E-16, 1.000000000000000000 ) ) ;
#2 = CARTESIAN_POINT ( 'NONE',  ( 1.326762908760390423E-13, 8.998558695971047118E-33, 38.00000000000000000 ) ) ;
#3 = CARTESIAN_POINT ( 'NONE',  ( 1.885399922975292012E-14, 0.0000000000000000000, 5.399999999999999467 ) ) ;
#4 = FACE_OUTER_BOUND ( 'NONE', #188, .T. ) ;
#5 = ADVANCED_BREP_SHAPE_REPRESENTATION ( '48094', ( #77, #78, #167 ), #200 ) ;
#6 = CARTESIAN_POINT ( 'NONE',  ( -3.750123613386195744E-31, -9.364582688073908918E-33, -1.074078091629944245E-16 ) ) ;
#7 = CIRCLE ( 'NONE', #84, 1.499999999999996669 ) ;
#8 = APPROVAL ( #62, 'UNSPECIFIED' ) ;
#9 = VERTEX_POINT ( 'NONE', #111 ) ;
#10 = CARTESIAN_POINT ( 'NONE',  ( 1.885399922975291696E-14, -0.8750000000000003331, 5.399999999999998579 ) ) ;
#11 = PERSON_AND_ORGANIZATION_ROLE ( 'creator' ) ;
#12 = CC_DESIGN_SECURITY_CLASSIFICATION ( #139, ( #59 ) ) ;
#13 = AXIS2_PLACEMENT_3D ( 'NONE', #100, #168, #21 ) ;
#14 = EDGE_CURVE ( 'NONE', #193, #193, #7, .T. ) ;
#15 = CALENDAR_DATE ( 2021, 1, 11 ) ;
#16 = APPLICATION_CONTEXT ( 'configuration controlled 3d designs of mechanical parts and assemblies' ) ;
#17 = EDGE_LOOP ( 'NONE', ( #166 ) ) ;
#18 = ORIENTED_EDGE ( 'NONE', *, *, #79, .T. ) ;
#19 = AXIS2_PLACEMENT_3D ( 'NONE', #6, #144, #70 ) ;
#20 = ORIENTED_EDGE ( 'NONE', *, *, #177, .F. ) ;
#21 = DIRECTION ( 'NONE',  ( 0.0000000000000000000, -1.000000000000000000, 0.0000000000000000000 ) ) ;
#22 = VERTEX_POINT ( 'NONE', #88 ) ;
#23 = CARTESIAN_POINT ( 'NONE',  ( 1.885399922975292327E-14, 1.124819836996386911E-32, 5.400000000000000355 ) ) ;
#24 = FACE_OUTER_BOUND ( 'NONE', #218, .T. ) ;
#25 = PERSON_AND_ORGANIZATION_ROLE ( 'design_supplier' ) ;
#26 = CLOSED_SHELL ( 'NONE', ( #187, #169, #123, #81, #83 ) ) ;
#27 = COORDINATED_UNIVERSAL_TIME_OFFSET ( 1, 0, .AHEAD. ) ;
#28 = APPLICATION_CONTEXT ( 'configuration controlled 3d designs of mechanical parts and assemblies' ) ;
#29 = CARTESIAN_POINT ( 'NONE',  ( 0.0000000000000000000, 0.0000000000000000000, 0.0000000000000000000 ) ) ;
#30 = AXIS2_PLACEMENT_3D ( 'NONE', #39, #138, #204 ) ;
#31 = CC_DESIGN_PERSON_AND_ORGANIZATION_ASSIGNMENT ( #42, #11, ( #59 ) ) ;
#32 = EDGE_LOOP ( 'NONE', ( #47 ) ) ;
#33 = DIRECTION ( 'NONE',  ( -3.491481338843133355E-15, 1.224646799147353207E-16, -1.000000000000000000 ) ) ;
#34 = CARTESIAN_POINT ( 'NONE',  ( -8.551680453529350800E-31, 2.999525725151307090E-32, -2.449298628175645296E-16 ) ) ;
#35 = ORIENTED_EDGE ( 'NONE', *, *, #14, .T. ) ;
#36 = AXIS2_PLACEMENT_3D ( 'NONE', #23, #1, #143 ) ;
#37 = DIRECTION ( 'NONE',  ( -3.491481338843133355E-15, 1.224646799147353207E-16, -1.000000000000000000 ) ) ;
#38 = CARTESIAN_POINT ( 'NONE',  ( 1.885399922975292327E-14, 1.124819836996386911E-32, 5.400000000000000355 ) ) ;
#39 = CARTESIAN_POINT ( 'NONE',  ( 1.326762908760390423E-13, -4.653657836759941941E-15, 38.00000000000000000 ) ) ;
#40 = PLANE ( 'NONE',  #36 ) ;
#41 = DIRECTION ( 'NONE',  ( 3.491481338843133355E-15, -1.227517819005651059E-16, 1.000000000000000000 ) ) ;
#42 = PERSON_AND_ORGANIZATION ( #135, #45 ) ;
#43 = PRODUCT_DEFINITION ( 'UNKNOWN', '', #59, #136 ) ;
#44 = CARTESIAN_POINT ( 'NONE',  ( 1.885399922975291696E-14, -0.8750000000000003331, 5.399999999999998579 ) ) ;
#45 = ORGANIZATION ( 'UNSPECIFIED', 'UNSPECIFIED', '' ) ;
#46 = CC_DESIGN_DATE_AND_TIME_ASSIGNMENT ( #199, #80, ( #43 ) ) ;
#47 = ORIENTED_EDGE ( 'NONE', *, *, #177, .T. ) ;
#48 = APPROVAL_PERSON_ORGANIZATION ( #175, #8, #95 ) ;
#49 = PLANE ( 'NONE',  #128 ) ;
#50 = ORIENTED_EDGE ( 'NONE', *, *, #162, .T. ) ;
#51 = FACE_OUTER_BOUND ( 'NONE', #17, .T. ) ;
#52 = CARTESIAN_POINT ( 'NONE',  ( 0.0000000000000000000, 0.0000000000000000000, 0.0000000000000000000 ) ) ;
#53 = FACE_OUTER_BOUND ( 'NONE', #134, .T. ) ;
#54 = AXIS2_PLACEMENT_3D ( 'NONE', #3, #108, #142 ) ;
#55 = APPROVAL_ROLE ( '' ) ;
#56 = APPROVAL_ROLE ( '' ) ;
#57 = VERTEX_POINT ( 'NONE', #44 ) ;
#58 = DATE_AND_TIME ( #217, #155 ) ;
#59 = PRODUCT_DEFINITION_FORMATION_WITH_SPECIFIED_SOURCE ( 'ANY', '', #182, .NOT_KNOWN. ) ;
#60 = CLOSED_SHELL ( 'NONE', ( #222, #115, #63 ) ) ;
#61 = DATE_AND_TIME ( #124, #129 ) ;
#62 = APPROVAL_STATUS ( 'not_yet_approved' ) ;
#63 = ADVANCED_FACE ( 'NONE', ( #201 ), #49, .F. ) ;
#64 = CIRCLE ( 'NONE', #179, 0.8749999999999996669 ) ;
#65 = ORIENTED_EDGE ( 'NONE', *, *, #203, .F. ) ;
#66 = DATE_TIME_ROLE ( 'classification_date' ) ;
#67 = PERSON_AND_ORGANIZATION ( #135, #45 ) ;
#68 = ORIENTED_EDGE ( 'NONE', *, *, #14, .F. ) ;
#69 = CC_DESIGN_PERSON_AND_ORGANIZATION_ASSIGNMENT ( #180, #145, ( #182 ) ) ;
#70 = DIRECTION ( 'NONE',  ( -4.285855558155654155E-31, -1.000000000000000000, -1.227517819005651059E-16 ) ) ;
#71 = DIRECTION ( 'NONE',  ( 4.275831445896958607E-31, 1.000000000000000000, 1.224646799147353207E-16 ) ) ;
#72 = PRODUCT_RELATED_PRODUCT_CATEGORY ( 'detail', '', ( #182 ) ) ;
#73 = FACE_OUTER_BOUND ( 'NONE', #163, .T. ) ;
#74 = PLANE ( 'NONE',  #185 ) ;
#75 = FACE_OUTER_BOUND ( 'NONE', #32, .T. ) ;
#76 = CIRCLE ( 'NONE', #219, 1.499999999999994893 ) ;
#77 = MANIFOLD_SOLID_BREP ( 'Corps-Déplacer/Copier1[1]', #26 ) ;
#78 = MANIFOLD_SOLID_BREP ( 'Corps-Déplacer/Copier1[2]', #60 ) ;
#79 = EDGE_CURVE ( 'NONE', #22, #22, #76, .T. ) ;
#80 = DATE_TIME_ROLE ( 'creation_date' ) ;
#81 = ADVANCED_FACE ( 'NONE', ( #121, #150 ), #209, .F. ) ;
#82 = APPLICATION_PROTOCOL_DEFINITION ( 'international standard', 'config_control_design', 1994, #28 ) ;
#83 = ADVANCED_FACE ( 'NONE', ( #73 ), #40, .F. ) ;
#84 = AXIS2_PLACEMENT_3D ( 'NONE', #186, #33, #164 ) ;
#85 = LOCAL_TIME ( 11, 35, 24.00000000000000000, #96 ) ;
#86 = EDGE_LOOP ( 'NONE', ( #35 ) ) ;
#87 = CC_DESIGN_PERSON_AND_ORGANIZATION_ASSIGNMENT ( #122, #125, ( #43 ) ) ;
#88 = CARTESIAN_POINT ( 'NONE',  ( 2.967723941059915833E-14, 1.499999999999994449, 8.499899191909301877 ) ) ;
#89 = DIRECTION ( 'NONE',  ( -3.491481338843133355E-15, 1.227517819005651059E-16, -1.000000000000000000 ) ) ;
#90 = DIRECTION ( 'NONE',  ( -4.275831445896958607E-31, -1.000000000000000000, -1.224646799147353207E-16 ) ) ;
#91 = FACE_BOUND ( 'NONE', #131, .T. ) ;
#92 = CC_DESIGN_APPROVAL ( #8, ( #59 ) ) ;
#93 = PERSON_AND_ORGANIZATION_ROLE ( 'classification_officer' ) ;
#94 = CALENDAR_DATE ( 2021, 1, 11 ) ;
#95 = APPROVAL_ROLE ( '' ) ;
#96 = COORDINATED_UNIVERSAL_TIME_OFFSET ( 1, 0, .AHEAD. ) ;
#97 = DIRECTION ( 'NONE',  ( 1.000000000000000000, 0.0000000000000000000, 0.0000000000000000000 ) ) ;
#98 = ORIENTED_EDGE ( 'NONE', *, *, #162, .F. ) ;
#99 = EDGE_LOOP ( 'NONE', ( #50 ) ) ;
#100 = CARTESIAN_POINT ( 'NONE',  ( 1.885399922975291696E-14, -6.628596222630513843E-16, 5.399999999999998579 ) ) ;
#101 = CC_DESIGN_PERSON_AND_ORGANIZATION_ASSIGNMENT ( #127, #93, ( #139 ) ) ;
#102 = DIRECTION ( 'NONE',  ( -4.275831445896958607E-31, -1.000000000000000000, -1.224646799147353207E-16 ) ) ;
#103 = CARTESIAN_POINT ( 'NONE',  ( 1.316288464743861212E-13, 1.499999999999992228, 37.69999999999999574 ) ) ;
#104 = CC_DESIGN_APPROVAL ( #107, ( #139 ) ) ;
#105 = AXIS2_PLACEMENT_3D ( 'NONE', #174, #41, #118 ) ;
#106 = DIRECTION ( 'NONE',  ( -3.491481338843133355E-15, 1.224646799147353207E-16, -1.000000000000000000 ) ) ;
#107 = APPROVAL ( #114, 'UNSPECIFIED' ) ;
#108 = DIRECTION ( 'NONE',  ( 3.491481338843133355E-15, -1.227517819005651059E-16, 1.000000000000000000 ) ) ;
#109 = APPROVAL_DATE_TIME ( #58, #207 ) ;
#110 = CARTESIAN_POINT ( 'NONE',  ( 1.326762908760390423E-13, 1.199999999999991518, 38.00000000000000000 ) ) ;
#111 = CARTESIAN_POINT ( 'NONE',  ( -7.500247226772390612E-31, -0.8749999999999994449, -2.148156183259888243E-16 ) ) ;
#112 = DIRECTION ( 'NONE',  ( 0.0000000000000000000, 0.0000000000000000000, 1.000000000000000000 ) ) ;
#113 = AXIS2_PLACEMENT_3D ( 'NONE', #141, #154, #192 ) ;
#114 = APPROVAL_STATUS ( 'not_yet_approved' ) ;
#115 = ADVANCED_FACE ( 'NONE', ( #75, #51 ), #119, .T. ) ;
#116 = FACE_OUTER_BOUND ( 'NONE', #86, .T. ) ;
#117 = CIRCLE ( 'NONE', #19, 0.8749999999999994449 ) ;
#118 = DIRECTION ( 'NONE',  ( -4.285855558155654155E-31, -1.000000000000000000, -1.227517819005650812E-16 ) ) ;
#119 = CYLINDRICAL_SURFACE ( 'NONE', #105, 0.8749999999999995559 ) ;
#120 = PLANE ( 'NONE',  #211 ) ;
#121 = FACE_OUTER_BOUND ( 'NONE', #99, .T. ) ;
#122 = PERSON_AND_ORGANIZATION ( #135, #45 ) ;
#123 = ADVANCED_FACE ( 'NONE', ( #4 ), #74, .F. ) ;
#124 = CALENDAR_DATE ( 2021, 1, 11 ) ;
#125 = PERSON_AND_ORGANIZATION_ROLE ( 'creator' ) ;
#126 = PRODUCT_DEFINITION_SHAPE ( 'NONE', 'NONE',  #43 ) ;
#127 = PERSON_AND_ORGANIZATION ( #135, #45 ) ;
#128 = AXIS2_PLACEMENT_3D ( 'NONE', #34, #151, #90 ) ;
#129 = LOCAL_TIME ( 11, 35, 24.00000000000000000, #27 ) ;
#130 = APPROVAL_PERSON_ORGANIZATION ( #161, #207, #55 ) ;
#131 = EDGE_LOOP ( 'NONE', ( #132 ) ) ;
#132 = ORIENTED_EDGE ( 'NONE', *, *, #203, .T. ) ;
#133 = EDGE_LOOP ( 'NONE', ( #20 ) ) ;
#134 = EDGE_LOOP ( 'NONE', ( #220 ) ) ;
#135 = PERSON ( 'UNSPECIFIED', 'UNSPECIFIED', 'UNSPECIFIED', ('UNSPECIFIED'), ('UNSPECIFIED'), ('UNSPECIFIED') ) ;
#136 = DESIGN_CONTEXT ( 'detailed design', #16, 'design' ) ;
#137 = SHAPE_DEFINITION_REPRESENTATION ( #126, #5 ) ;
#138 = DIRECTION ( 'NONE',  ( -3.491481338843133355E-15, 1.224646799147353207E-16, -1.000000000000000000 ) ) ;
#139 = SECURITY_CLASSIFICATION ( '', '', #216 ) ;
#140 = DATE_AND_TIME ( #165, #85 ) ;
#141 = CARTESIAN_POINT ( 'NONE',  ( 1.326762908760390423E-13, -4.653657836759941941E-15, 38.00000000000000000 ) ) ;
#142 = DIRECTION ( 'NONE',  ( -4.348801441185602143E-31, -1.000000000000000000, -1.227517819005651059E-16 ) ) ;
#143 = DIRECTION ( 'NONE',  ( -4.275831445896958607E-31, -1.000000000000000000, -1.224646799147353207E-16 ) ) ;
#144 = DIRECTION ( 'NONE',  ( 3.491481338843133355E-15, -1.227517819005651059E-16, 1.000000000000000000 ) ) ;
#145 = PERSON_AND_ORGANIZATION_ROLE ( 'design_owner' ) ;
#146 = COORDINATED_UNIVERSAL_TIME_OFFSET ( 1, 0, .AHEAD. ) ;
#147 = CIRCLE ( 'NONE', #13, 0.8749999999999996669 ) ;
#148 = APPROVAL_STATUS ( 'not_yet_approved' ) ;
#149 = DATE_AND_TIME ( #94, #171 ) ;
#150 = FACE_OUTER_BOUND ( 'NONE', #202, .T. ) ;
#151 = DIRECTION ( 'NONE',  ( 3.491481338843133355E-15, -1.224646799147353207E-16, 1.000000000000000000 ) ) ;
#152 = CARTESIAN_POINT ( 'NONE',  ( 1.885399922975291696E-14, -6.628596222630513843E-16, 5.399999999999998579 ) ) ;
#153 = CARTESIAN_POINT ( 'NONE',  ( 2.967723941059915833E-14, -3.805181495189888645E-16, 8.499899191909301877 ) ) ;
#154 = DIRECTION ( 'NONE',  ( -3.491481338843133355E-15, 1.224646799147353207E-16, -1.000000000000000000 ) ) ;
#155 = LOCAL_TIME ( 11, 35, 24.00000000000000000, #146 ) ;
#156 =( LENGTH_UNIT ( ) NAMED_UNIT ( * ) SI_UNIT ( .MILLI., .METRE. ) );
#157 = PERSON_AND_ORGANIZATION ( #135, #45 ) ;
#158 =( NAMED_UNIT ( * ) SI_UNIT ( $, .STERADIAN. ) SOLID_ANGLE_UNIT ( ) );
#159 = CIRCLE ( 'NONE', #30, 1.199999999999995959 ) ;
#160 = APPROVAL_DATE_TIME ( #140, #107 ) ;
#161 = PERSON_AND_ORGANIZATION ( #135, #45 ) ;
#162 = EDGE_CURVE ( 'NONE', #205, #205, #64, .T. ) ;
#163 = EDGE_LOOP ( 'NONE', ( #98 ) ) ;
#164 = DIRECTION ( 'NONE',  ( 0.0000000000000000000, 1.000000000000000000, 0.0000000000000000000 ) ) ;
#165 = CALENDAR_DATE ( 2021, 1, 11 ) ;
#166 = ORIENTED_EDGE ( 'NONE', *, *, #190, .F. ) ;
#167 = AXIS2_PLACEMENT_3D ( 'NONE', #29, #112, #97 ) ;
#168 = DIRECTION ( 'NONE',  ( 3.491481338843133355E-15, -1.227517819005651059E-16, 1.000000000000000000 ) ) ;
#169 = ADVANCED_FACE ( 'NONE', ( #24, #91 ), #181, .T. ) ;
#170 = DIRECTION ( 'NONE',  ( 3.491481338843133355E-15, -1.224646799147353207E-16, 1.000000000000000000 ) ) ;
#171 = LOCAL_TIME ( 11, 35, 24.00000000000000000, #176 ) ;
#172 = AXIS2_PLACEMENT_3D ( 'NONE', #52, #37, #71 ) ;
#173 = DIRECTION ( 'NONE',  ( 4.275831445896958607E-31, 1.000000000000000000, 1.224646799147353207E-16 ) ) ;
#174 = CARTESIAN_POINT ( 'NONE',  ( -6.413731847436034514E-31, 0.0000000000000000000, -1.836965810494968570E-16 ) ) ;
#175 = PERSON_AND_ORGANIZATION ( #135, #45 ) ;
#176 = COORDINATED_UNIVERSAL_TIME_OFFSET ( 1, 0, .AHEAD. ) ;
#177 = EDGE_CURVE ( 'NONE', #9, #9, #117, .T. ) ;
#178 = VERTEX_POINT ( 'NONE', #110 ) ;
#179 = AXIS2_PLACEMENT_3D ( 'NONE', #152, #195, #208 ) ;
#180 = PERSON_AND_ORGANIZATION ( #135, #45 ) ;
#181 = CONICAL_SURFACE ( 'NONE', #113, 1.199999999999995959, 0.7853981633974468357 ) ;
#182 = PRODUCT ( '48094', '48094', '', ( #215 ) ) ;
#183 = ORIENTED_EDGE ( 'NONE', *, *, #79, .F. ) ;
#184 = APPROVAL_PERSON_ORGANIZATION ( #67, #107, #56 ) ;
#185 = AXIS2_PLACEMENT_3D ( 'NONE', #2, #106, #173 ) ;
#186 = CARTESIAN_POINT ( 'NONE',  ( 1.316288464743861212E-13, -4.616918432785521081E-15, 37.69999999999999574 ) ) ;
#187 = ADVANCED_FACE ( 'NONE', ( #116, #189 ), #206, .T. ) ;
#188 = EDGE_LOOP ( 'NONE', ( #65 ) ) ;
#189 = FACE_OUTER_BOUND ( 'NONE', #223, .T. ) ;
#190 = EDGE_CURVE ( 'NONE', #57, #57, #147, .T. ) ;
#191 = CC_DESIGN_APPROVAL ( #207, ( #43 ) ) ;
#192 = DIRECTION ( 'NONE',  ( 0.0000000000000000000, 1.000000000000000000, 0.0000000000000000000 ) ) ;
#193 = VERTEX_POINT ( 'NONE', #103 ) ;
#194 = DIRECTION ( 'NONE',  ( 0.0000000000000000000, 1.000000000000000000, 0.0000000000000000000 ) ) ;
#195 = DIRECTION ( 'NONE',  ( 3.491481338843133355E-15, -1.227517819005651059E-16, 1.000000000000000000 ) ) ;
#196 = COORDINATED_UNIVERSAL_TIME_OFFSET ( 1, 0, .AHEAD. ) ;
#197 = APPROVAL_DATE_TIME ( #61, #8 ) ;
#198 = CC_DESIGN_DATE_AND_TIME_ASSIGNMENT ( #149, #66, ( #139 ) ) ;
#199 = DATE_AND_TIME ( #15, #210 ) ;
#200 =( GEOMETRIC_REPRESENTATION_CONTEXT ( 3 ) GLOBAL_UNCERTAINTY_ASSIGNED_CONTEXT ( ( #221 ) ) GLOBAL_UNIT_ASSIGNED_CONTEXT ( ( #156, #212, #158 ) ) REPRESENTATION_CONTEXT ( 'NONE', 'WORKASPACE' ) );
#201 = FACE_OUTER_BOUND ( 'NONE', #133, .T. ) ;
#202 = EDGE_LOOP ( 'NONE', ( #18 ) ) ;
#203 = EDGE_CURVE ( 'NONE', #178, #178, #159, .T. ) ;
#204 = DIRECTION ( 'NONE',  ( 0.0000000000000000000, 1.000000000000000000, 0.0000000000000000000 ) ) ;
#205 = VERTEX_POINT ( 'NONE', #10 ) ;
#206 = CYLINDRICAL_SURFACE ( 'NONE', #172, 1.499999999999994893 ) ;
#207 = APPROVAL ( #148, 'UNSPECIFIED' ) ;
#208 = DIRECTION ( 'NONE',  ( 0.0000000000000000000, -1.000000000000000000, 0.0000000000000000000 ) ) ;
#209 = TOROIDAL_SURFACE ( 'NONE', #54, 8.874999999999998224, 8.000000000000000000 ) ;
#210 = LOCAL_TIME ( 11, 35, 24.00000000000000000, #196 ) ;
#211 = AXIS2_PLACEMENT_3D ( 'NONE', #38, #170, #102 ) ;
#212 =( NAMED_UNIT ( * ) PLANE_ANGLE_UNIT ( ) SI_UNIT ( $, .RADIAN. ) );
#213 = APPLICATION_PROTOCOL_DEFINITION ( 'international standard', 'config_control_design', 1994, #16 ) ;
#214 = CC_DESIGN_PERSON_AND_ORGANIZATION_ASSIGNMENT ( #157, #25, ( #59 ) ) ;
#215 = MECHANICAL_CONTEXT ( 'NONE', #28, 'mechanical' ) ;
#216 = SECURITY_CLASSIFICATION_LEVEL ( 'unclassified' ) ;
#217 = CALENDAR_DATE ( 2021, 1, 11 ) ;
#218 = EDGE_LOOP ( 'NONE', ( #68 ) ) ;
#219 = AXIS2_PLACEMENT_3D ( 'NONE', #153, #89, #194 ) ;
#220 = ORIENTED_EDGE ( 'NONE', *, *, #190, .T. ) ;
#221 = UNCERTAINTY_MEASURE_WITH_UNIT (LENGTH_MEASURE( 1.000000000000000082E-05 ), #156, 'distance_accuracy_value', 'NONE');
#222 = ADVANCED_FACE ( 'NONE', ( #53 ), #120, .T. ) ;
#223 = EDGE_LOOP ( 'NONE', ( #183 ) ) ;
ENDSEC;
END-ISO-10303-21;
