ISO-10303-21;
HEADER;
FILE_DESCRIPTION (( 'STEP AP203' ),
    '1' );
FILE_NAME ('48093.step',
    '2021-11-01T10:35:23',
    ( '' ),
    ( '' ),
    'SwSTEP 2.0',
    'SolidWorks 2019',
    '' );
FILE_SCHEMA (( 'CONFIG_CONTROL_DESIGN' ));
ENDSEC;

DATA;
#1 = MANIFOLD_SOLID_BREP ( 'Corps-Déplacer/Copier1[2]', #43 ) ;
#2 = DIRECTION ( 'NONE',  ( -3.491481338843133355E-15, 1.224646799147353207E-16, -1.000000000000000000 ) ) ;
#3 = CC_DESIGN_APPROVAL ( #108, ( #69 ) ) ;
#4 = PLANE ( 'NONE',  #106 ) ;
#5 = DIRECTION ( 'NONE',  ( 3.491481338843133355E-15, -1.227517819005651059E-16, 1.000000000000000000 ) ) ;
#6 = DIRECTION ( 'NONE',  ( -3.491481338843133355E-15, 1.224646799147353207E-16, -1.000000000000000000 ) ) ;
#7 = CC_DESIGN_SECURITY_CLASSIFICATION ( #99, ( #69 ) ) ;
#8 = VERTEX_POINT ( 'NONE', #40 ) ;
#9 = ADVANCED_FACE ( 'NONE', ( #27 ), #58, .T. ) ;
#10 = ORIENTED_EDGE ( 'NONE', *, *, #131, .F. ) ;
#11 = AXIS2_PLACEMENT_3D ( 'NONE', #158, #124, #87 ) ;
#12 = DATE_AND_TIME ( #167, #102 ) ;
#13 = AXIS2_PLACEMENT_3D ( 'NONE', #21, #101, #205 ) ;
#14 = CALENDAR_DATE ( 2021, 1, 11 ) ;
#15 = ADVANCED_FACE ( 'NONE', ( #39 ), #55, .F. ) ;
#16 =( NAMED_UNIT ( * ) PLANE_ANGLE_UNIT ( ) SI_UNIT ( $, .RADIAN. ) );
#17 = EDGE_LOOP ( 'NONE', ( #113 ) ) ;
#18 = COORDINATED_UNIVERSAL_TIME_OFFSET ( 1, 0, .AHEAD. ) ;
#19 = FACE_OUTER_BOUND ( 'NONE', #118, .T. ) ;
#20 = DIRECTION ( 'NONE',  ( 3.491481338843133355E-15, -1.227517819005651059E-16, 1.000000000000000000 ) ) ;
#21 = CARTESIAN_POINT ( 'NONE',  ( 2.751963704791718294E-14, -4.151388316452689037E-16, 7.881937314617162293 ) ) ;
#22 = CIRCLE ( 'NONE', #54, 1.199999999999995959 ) ;
#23 = DIRECTION ( 'NONE',  ( 4.275831445896958607E-31, 1.000000000000000000, 1.224646799147353207E-16 ) ) ;
#24 = CYLINDRICAL_SURFACE ( 'NONE', #11, 1.499999999999994893 ) ;
#25 =( LENGTH_UNIT ( ) NAMED_UNIT ( * ) SI_UNIT ( .MILLI., .METRE. ) );
#26 = PRODUCT_RELATED_PRODUCT_CATEGORY ( 'detail', '', ( #181 ) ) ;
#27 = FACE_OUTER_BOUND ( 'NONE', #145, .T. ) ;
#28 = AXIS2_PLACEMENT_3D ( 'NONE', #162, #37, #86 ) ;
#29 = DATE_TIME_ROLE ( 'classification_date' ) ;
#30 = EDGE_LOOP ( 'NONE', ( #10 ) ) ;
#31 = PERSON_AND_ORGANIZATION ( #175, #50 ) ;
#32 = APPROVAL_STATUS ( 'not_yet_approved' ) ;
#33 = VERTEX_POINT ( 'NONE', #173 ) ;
#34 = AXIS2_PLACEMENT_3D ( 'NONE', #192, #157, #36 ) ;
#35 = DIRECTION ( 'NONE',  ( -4.275831445896958607E-31, -1.000000000000000000, -1.224646799147353207E-16 ) ) ;
#36 = DIRECTION ( 'NONE',  ( -4.349271186581348860E-31, -1.000000000000000000, -1.227517819005651059E-16 ) ) ;
#37 = DIRECTION ( 'NONE',  ( 3.491481338843133355E-15, -1.224646799147353207E-16, 1.000000000000000000 ) ) ;
#38 = AXIS2_PLACEMENT_3D ( 'NONE', #104, #140, #136 ) ;
#39 = FACE_OUTER_BOUND ( 'NONE', #61, .T. ) ;
#40 = CARTESIAN_POINT ( 'NONE',  ( 1.326762908760390423E-13, 1.199999999999991518, 38.00000000000000000 ) ) ;
#41 = PRODUCT_DEFINITION_SHAPE ( 'NONE', 'NONE',  #107 ) ;
#42 = EDGE_LOOP ( 'NONE', ( #165 ) ) ;
#43 = CLOSED_SHELL ( 'NONE', ( #9, #180, #91 ) ) ;
#44 = DATE_AND_TIME ( #149, #194 ) ;
#45 = EDGE_LOOP ( 'NONE', ( #78 ) ) ;
#46 = PERSON_AND_ORGANIZATION ( #175, #50 ) ;
#47 = DIRECTION ( 'NONE',  ( 1.000000000000000000, 0.0000000000000000000, 0.0000000000000000000 ) ) ;
#48 = ORIENTED_EDGE ( 'NONE', *, *, #209, .F. ) ;
#49 = CARTESIAN_POINT ( 'NONE',  ( 1.326762908760390423E-13, 8.998558695971047118E-33, 38.00000000000000000 ) ) ;
#50 = ORGANIZATION ( 'UNSPECIFIED', 'UNSPECIFIED', '' ) ;
#51 = CARTESIAN_POINT ( 'NONE',  ( 1.326762908760390423E-13, -4.653657836759941941E-15, 38.00000000000000000 ) ) ;
#52 = FACE_OUTER_BOUND ( 'NONE', #199, .T. ) ;
#53 = DIRECTION ( 'NONE',  ( 0.0000000000000000000, 1.000000000000000000, 0.0000000000000000000 ) ) ;
#54 = AXIS2_PLACEMENT_3D ( 'NONE', #51, #67, #143 ) ;
#55 = PLANE ( 'NONE',  #38 ) ;
#56 = CC_DESIGN_PERSON_AND_ORGANIZATION_ASSIGNMENT ( #46, #117, ( #69 ) ) ;
#57 = CIRCLE ( 'NONE', #109, 0.7499999999999993339 ) ;
#58 = PLANE ( 'NONE',  #28 ) ;
#59 = CIRCLE ( 'NONE', #13, 1.499999999999994893 ) ;
#60 = PERSON_AND_ORGANIZATION_ROLE ( 'classification_officer' ) ;
#61 = EDGE_LOOP ( 'NONE', ( #215 ) ) ;
#62 = SHAPE_DEFINITION_REPRESENTATION ( #41, #213 ) ;
#63 = ADVANCED_FACE ( 'NONE', ( #90, #19 ), #172, .F. ) ;
#64 = CIRCLE ( 'NONE', #151, 0.7499999999999994449 ) ;
#65 = CARTESIAN_POINT ( 'NONE',  ( 0.0000000000000000000, 0.0000000000000000000, 0.0000000000000000000 ) ) ;
#66 = EDGE_LOOP ( 'NONE', ( #48 ) ) ;
#67 = DIRECTION ( 'NONE',  ( -3.491481338843133355E-15, 1.224646799147353207E-16, -1.000000000000000000 ) ) ;
#68 = FACE_OUTER_BOUND ( 'NONE', #84, .T. ) ;
#69 = PRODUCT_DEFINITION_FORMATION_WITH_SPECIFIED_SOURCE ( 'ANY', '', #181, .NOT_KNOWN. ) ;
#70 = APPROVAL ( #95, 'UNSPECIFIED' ) ;
#71 = CARTESIAN_POINT ( 'NONE',  ( 1.571166602479409694E-14, -5.523830185525428531E-16, 4.499999999999999112 ) ) ;
#72 = CARTESIAN_POINT ( 'NONE',  ( 1.316288464743861212E-13, -4.616918432785521081E-15, 37.69999999999999574 ) ) ;
#73 = CC_DESIGN_PERSON_AND_ORGANIZATION_ASSIGNMENT ( #128, #60, ( #99 ) ) ;
#74 = CARTESIAN_POINT ( 'NONE',  ( -6.413731847436034514E-31, 0.0000000000000000000, -1.836965810494968570E-16 ) ) ;
#75 = APPROVAL_PERSON_ORGANIZATION ( #188, #108, #97 ) ;
#76 = VERTEX_POINT ( 'NONE', #196 ) ;
#77 = LOCAL_TIME ( 11, 35, 23.00000000000000000, #132 ) ;
#78 = ORIENTED_EDGE ( 'NONE', *, *, #170, .F. ) ;
#79 = PERSON_AND_ORGANIZATION_ROLE ( 'design_supplier' ) ;
#80 = APPLICATION_PROTOCOL_DEFINITION ( 'international standard', 'config_control_design', 1994, #129 ) ;
#81 = APPROVAL_DATE_TIME ( #168, #108 ) ;
#82 = DESIGN_CONTEXT ( 'detailed design', #116, 'design' ) ;
#83 =( GEOMETRIC_REPRESENTATION_CONTEXT ( 3 ) GLOBAL_UNCERTAINTY_ASSIGNED_CONTEXT ( ( #133 ) ) GLOBAL_UNIT_ASSIGNED_CONTEXT ( ( #25, #16, #147 ) ) REPRESENTATION_CONTEXT ( 'NONE', 'WORKASPACE' ) );
#84 = EDGE_LOOP ( 'NONE', ( #148 ) ) ;
#85 = DATE_AND_TIME ( #182, #179 ) ;
#86 = DIRECTION ( 'NONE',  ( -4.275831445896958607E-31, -1.000000000000000000, -1.224646799147353207E-16 ) ) ;
#87 = DIRECTION ( 'NONE',  ( 4.275831445896958607E-31, 1.000000000000000000, 1.224646799147353207E-16 ) ) ;
#88 = DIRECTION ( 'NONE',  ( 3.491481338843133355E-15, -1.227517819005651059E-16, 1.000000000000000000 ) ) ;
#89 = CC_DESIGN_PERSON_AND_ORGANIZATION_ASSIGNMENT ( #202, #221, ( #107 ) ) ;
#90 = FACE_OUTER_BOUND ( 'NONE', #163, .T. ) ;
#91 = ADVANCED_FACE ( 'NONE', ( #176 ), #4, .F. ) ;
#92 = EDGE_LOOP ( 'NONE', ( #216 ) ) ;
#93 = CIRCLE ( 'NONE', #137, 0.7499999999999994449 ) ;
#94 = DATE_AND_TIME ( #114, #77 ) ;
#95 = APPROVAL_STATUS ( 'not_yet_approved' ) ;
#96 = ORIENTED_EDGE ( 'NONE', *, *, #170, .T. ) ;
#97 = APPROVAL_ROLE ( '' ) ;
#98 = PERSON_AND_ORGANIZATION ( #175, #50 ) ;
#99 = SECURITY_CLASSIFICATION ( '', '', #171 ) ;
#100 = DIRECTION ( 'NONE',  ( 0.0000000000000000000, -1.000000000000000000, 0.0000000000000000000 ) ) ;
#101 = DIRECTION ( 'NONE',  ( -3.491481338843133355E-15, 1.227517819005651059E-16, -1.000000000000000000 ) ) ;
#102 = LOCAL_TIME ( 11, 35, 23.00000000000000000, #18 ) ;
#103 = CARTESIAN_POINT ( 'NONE',  ( -3.214391668616738208E-31, -1.124808268304439854E-32, -9.206383642542378009E-17 ) ) ;
#104 = CARTESIAN_POINT ( 'NONE',  ( 1.571166602479410010E-14, 1.124819836996386911E-32, 4.500000000000000000 ) ) ;
#105 = VERTEX_POINT ( 'NONE', #125 ) ;
#106 = AXIS2_PLACEMENT_3D ( 'NONE', #195, #208, #35 ) ;
#107 = PRODUCT_DEFINITION ( 'UNKNOWN', '', #69, #82 ) ;
#108 = APPROVAL ( #32, 'UNSPECIFIED' ) ;
#109 = AXIS2_PLACEMENT_3D ( 'NONE', #103, #20, #155 ) ;
#110 = CLOSED_SHELL ( 'NONE', ( #166, #160, #134, #63, #15 ) ) ;
#111 = PERSON_AND_ORGANIZATION ( #175, #50 ) ;
#112 = DIRECTION ( 'NONE',  ( 0.0000000000000000000, 0.0000000000000000000, 1.000000000000000000 ) ) ;
#113 = ORIENTED_EDGE ( 'NONE', *, *, #186, .T. ) ;
#114 = CALENDAR_DATE ( 2021, 1, 11 ) ;
#115 = CIRCLE ( 'NONE', #214, 1.499999999999996669 ) ;
#116 = APPLICATION_CONTEXT ( 'configuration controlled 3d designs of mechanical parts and assemblies' ) ;
#117 = PERSON_AND_ORGANIZATION_ROLE ( 'creator' ) ;
#118 = EDGE_LOOP ( 'NONE', ( #161 ) ) ;
#119 = CC_DESIGN_DATE_AND_TIME_ASSIGNMENT ( #12, #130, ( #107 ) ) ;
#120 = CARTESIAN_POINT ( 'NONE',  ( 1.571166602479409694E-14, -5.523830185525428531E-16, 4.499999999999999112 ) ) ;
#121 = FACE_OUTER_BOUND ( 'NONE', #17, .T. ) ;
#122 = EDGE_CURVE ( 'NONE', #33, #33, #59, .T. ) ;
#123 = FACE_OUTER_BOUND ( 'NONE', #45, .T. ) ;
#124 = DIRECTION ( 'NONE',  ( -3.491481338843133355E-15, 1.224646799147353207E-16, -1.000000000000000000 ) ) ;
#125 = CARTESIAN_POINT ( 'NONE',  ( 1.571166602479409694E-14, -0.7500000000000000000, 4.499999999999999112 ) ) ;
#126 = APPROVAL ( #187, 'UNSPECIFIED' ) ;
#127 = CC_DESIGN_PERSON_AND_ORGANIZATION_ASSIGNMENT ( #111, #153, ( #181 ) ) ;
#128 = PERSON_AND_ORGANIZATION ( #175, #50 ) ;
#129 = APPLICATION_CONTEXT ( 'configuration controlled 3d designs of mechanical parts and assemblies' ) ;
#130 = DATE_TIME_ROLE ( 'creation_date' ) ;
#131 = EDGE_CURVE ( 'NONE', #141, #141, #57, .T. ) ;
#132 = COORDINATED_UNIVERSAL_TIME_OFFSET ( 1, 0, .AHEAD. ) ;
#133 = UNCERTAINTY_MEASURE_WITH_UNIT (LENGTH_MEASURE( 1.000000000000000082E-05 ), #25, 'distance_accuracy_value', 'NONE');
#134 = ADVANCED_FACE ( 'NONE', ( #159 ), #177, .F. ) ;
#135 = ORIENTED_EDGE ( 'NONE', *, *, #131, .T. ) ;
#136 = DIRECTION ( 'NONE',  ( -4.275831445896958607E-31, -1.000000000000000000, -1.224646799147353207E-16 ) ) ;
#137 = AXIS2_PLACEMENT_3D ( 'NONE', #120, #88, #189 ) ;
#138 = DIRECTION ( 'NONE',  ( -4.285855558155652404E-31, -1.000000000000000000, -1.227517819005651552E-16 ) ) ;
#139 = CC_DESIGN_DATE_AND_TIME_ASSIGNMENT ( #85, #29, ( #99 ) ) ;
#140 = DIRECTION ( 'NONE',  ( 3.491481338843133355E-15, -1.224646799147353207E-16, 1.000000000000000000 ) ) ;
#141 = VERTEX_POINT ( 'NONE', #223 ) ;
#142 = AXIS2_PLACEMENT_3D ( 'NONE', #74, #5, #138 ) ;
#143 = DIRECTION ( 'NONE',  ( 0.0000000000000000000, 1.000000000000000000, 0.0000000000000000000 ) ) ;
#144 = VERTEX_POINT ( 'NONE', #212 ) ;
#145 = EDGE_LOOP ( 'NONE', ( #96 ) ) ;
#146 = CONICAL_SURFACE ( 'NONE', #156, 1.199999999999995959, 0.7853981633974468357 ) ;
#147 =( NAMED_UNIT ( * ) SI_UNIT ( $, .STERADIAN. ) SOLID_ANGLE_UNIT ( ) );
#148 = ORIENTED_EDGE ( 'NONE', *, *, #186, .F. ) ;
#149 = CALENDAR_DATE ( 2021, 1, 11 ) ;
#150 = MANIFOLD_SOLID_BREP ( 'Corps-Déplacer/Copier1[1]', #110 ) ;
#151 = AXIS2_PLACEMENT_3D ( 'NONE', #71, #210, #100 ) ;
#152 = EDGE_CURVE ( 'NONE', #105, #105, #93, .T. ) ;
#153 = PERSON_AND_ORGANIZATION_ROLE ( 'design_owner' ) ;
#154 = DIRECTION ( 'NONE',  ( 0.0000000000000000000, 1.000000000000000000, 0.0000000000000000000 ) ) ;
#155 = DIRECTION ( 'NONE',  ( -4.285855558155652404E-31, -1.000000000000000000, -1.227517819005651059E-16 ) ) ;
#156 = AXIS2_PLACEMENT_3D ( 'NONE', #178, #6, #53 ) ;
#157 = DIRECTION ( 'NONE',  ( 3.491481338843133355E-15, -1.227517819005651059E-16, 1.000000000000000000 ) ) ;
#158 = CARTESIAN_POINT ( 'NONE',  ( 0.0000000000000000000, 0.0000000000000000000, 0.0000000000000000000 ) ) ;
#159 = FACE_OUTER_BOUND ( 'NONE', #66, .T. ) ;
#160 = ADVANCED_FACE ( 'NONE', ( #68, #191 ), #146, .T. ) ;
#161 = ORIENTED_EDGE ( 'NONE', *, *, #122, .T. ) ;
#162 = CARTESIAN_POINT ( 'NONE',  ( 1.571166602479410010E-14, 1.124819836996386911E-32, 4.500000000000000000 ) ) ;
#163 = EDGE_LOOP ( 'NONE', ( #183 ) ) ;
#164 = APPROVAL_DATE_TIME ( #94, #70 ) ;
#165 = ORIENTED_EDGE ( 'NONE', *, *, #209, .T. ) ;
#166 = ADVANCED_FACE ( 'NONE', ( #121, #174 ), #24, .T. ) ;
#167 = CALENDAR_DATE ( 2021, 1, 11 ) ;
#168 = DATE_AND_TIME ( #14, #211 ) ;
#169 = COORDINATED_UNIVERSAL_TIME_OFFSET ( 1, 0, .AHEAD. ) ;
#170 = EDGE_CURVE ( 'NONE', #144, #144, #64, .T. ) ;
#171 = SECURITY_CLASSIFICATION_LEVEL ( 'unclassified' ) ;
#172 = TOROIDAL_SURFACE ( 'NONE', #34, 8.749999999999998224, 8.000000000000000000 ) ;
#173 = CARTESIAN_POINT ( 'NONE',  ( 2.751963704791718294E-14, 1.499999999999994449, 7.881937314617162293 ) ) ;
#174 = FACE_OUTER_BOUND ( 'NONE', #92, .T. ) ;
#175 = PERSON ( 'UNSPECIFIED', 'UNSPECIFIED', 'UNSPECIFIED', ('UNSPECIFIED'), ('UNSPECIFIED'), ('UNSPECIFIED') ) ;
#176 = FACE_OUTER_BOUND ( 'NONE', #30, .T. ) ;
#177 = PLANE ( 'NONE',  #206 ) ;
#178 = CARTESIAN_POINT ( 'NONE',  ( 1.326762908760390423E-13, -4.653657836759941941E-15, 38.00000000000000000 ) ) ;
#179 = LOCAL_TIME ( 11, 35, 23.00000000000000000, #200 ) ;
#180 = ADVANCED_FACE ( 'NONE', ( #52, #123 ), #193, .T. ) ;
#181 = PRODUCT ( '48093', '48093', '', ( #219 ) ) ;
#182 = CALENDAR_DATE ( 2021, 1, 11 ) ;
#183 = ORIENTED_EDGE ( 'NONE', *, *, #152, .T. ) ;
#184 = APPROVAL_PERSON_ORGANIZATION ( #31, #126, #198 ) ;
#185 = APPLICATION_PROTOCOL_DEFINITION ( 'international standard', 'config_control_design', 1994, #116 ) ;
#186 = EDGE_CURVE ( 'NONE', #76, #76, #115, .T. ) ;
#187 = APPROVAL_STATUS ( 'not_yet_approved' ) ;
#188 = PERSON_AND_ORGANIZATION ( #175, #50 ) ;
#189 = DIRECTION ( 'NONE',  ( 0.0000000000000000000, -1.000000000000000000, 0.0000000000000000000 ) ) ;
#190 = AXIS2_PLACEMENT_3D ( 'NONE', #65, #112, #47 ) ;
#191 = FACE_BOUND ( 'NONE', #42, .T. ) ;
#192 = CARTESIAN_POINT ( 'NONE',  ( 1.571166602479409694E-14, 0.0000000000000000000, 4.499999999999999112 ) ) ;
#193 = CYLINDRICAL_SURFACE ( 'NONE', #142, 0.7499999999999993339 ) ;
#194 = LOCAL_TIME ( 11, 35, 23.00000000000000000, #169 ) ;
#195 = CARTESIAN_POINT ( 'NONE',  ( -8.551680453529350800E-31, 2.999525725151307090E-32, -2.449298628175645296E-16 ) ) ;
#196 = CARTESIAN_POINT ( 'NONE',  ( 1.316288464743861212E-13, 1.499999999999992228, 37.69999999999999574 ) ) ;
#197 = APPROVAL_PERSON_ORGANIZATION ( #204, #70, #222 ) ;
#198 = APPROVAL_ROLE ( '' ) ;
#199 = EDGE_LOOP ( 'NONE', ( #135 ) ) ;
#200 = COORDINATED_UNIVERSAL_TIME_OFFSET ( 1, 0, .AHEAD. ) ;
#201 = CC_DESIGN_APPROVAL ( #70, ( #107 ) ) ;
#202 = PERSON_AND_ORGANIZATION ( #175, #50 ) ;
#203 = COORDINATED_UNIVERSAL_TIME_OFFSET ( 1, 0, .AHEAD. ) ;
#204 = PERSON_AND_ORGANIZATION ( #175, #50 ) ;
#205 = DIRECTION ( 'NONE',  ( 0.0000000000000000000, 1.000000000000000000, 0.0000000000000000000 ) ) ;
#206 = AXIS2_PLACEMENT_3D ( 'NONE', #49, #2, #23 ) ;
#207 = DIRECTION ( 'NONE',  ( -3.491481338843133355E-15, 1.224646799147353207E-16, -1.000000000000000000 ) ) ;
#208 = DIRECTION ( 'NONE',  ( 3.491481338843133355E-15, -1.224646799147353207E-16, 1.000000000000000000 ) ) ;
#209 = EDGE_CURVE ( 'NONE', #8, #8, #22, .T. ) ;
#210 = DIRECTION ( 'NONE',  ( 3.491481338843133355E-15, -1.227517819005651059E-16, 1.000000000000000000 ) ) ;
#211 = LOCAL_TIME ( 11, 35, 23.00000000000000000, #203 ) ;
#212 = CARTESIAN_POINT ( 'NONE',  ( 1.571166602479409694E-14, -0.7500000000000000000, 4.499999999999999112 ) ) ;
#213 = ADVANCED_BREP_SHAPE_REPRESENTATION ( '48093', ( #150, #1, #190 ), #83 ) ;
#214 = AXIS2_PLACEMENT_3D ( 'NONE', #72, #207, #154 ) ;
#215 = ORIENTED_EDGE ( 'NONE', *, *, #152, .F. ) ;
#216 = ORIENTED_EDGE ( 'NONE', *, *, #122, .F. ) ;
#217 = APPROVAL_DATE_TIME ( #44, #126 ) ;
#218 = CC_DESIGN_PERSON_AND_ORGANIZATION_ASSIGNMENT ( #98, #79, ( #69 ) ) ;
#219 = MECHANICAL_CONTEXT ( 'NONE', #129, 'mechanical' ) ;
#220 = CC_DESIGN_APPROVAL ( #126, ( #99 ) ) ;
#221 = PERSON_AND_ORGANIZATION_ROLE ( 'creator' ) ;
#222 = APPROVAL_ROLE ( '' ) ;
#223 = CARTESIAN_POINT ( 'NONE',  ( -6.428783337233474664E-31, -0.7499999999999993339, -1.841276728508475355E-16 ) ) ;
ENDSEC;
END-ISO-10303-21;
