ISO-10303-21;
HEADER;
FILE_DESCRIPTION (( 'STEP AP203' ),
    '1' );
FILE_NAME ('48092.step',
    '2021-11-01T10:35:22',
    ( '' ),
    ( '' ),
    'SwSTEP 2.0',
    'SolidWorks 2019',
    '' );
FILE_SCHEMA (( 'CONFIG_CONTROL_DESIGN' ));
ENDSEC;

DATA;
#1 = CARTESIAN_POINT ( 'NONE',  ( 1.316288464743861212E-13, -4.616918432785521081E-15, 37.69999999999999574 ) ) ;
#2 = CARTESIAN_POINT ( 'NONE',  ( 1.361677722148821693E-14, -4.787319494122037009E-16, 3.899999999999999023 ) ) ;
#3 = CC_DESIGN_PERSON_AND_ORGANIZATION_ASSIGNMENT ( #129, #197, ( #44 ) ) ;
#4 = VERTEX_POINT ( 'NONE', #211 ) ;
#5 = FACE_OUTER_BOUND ( 'NONE', #135, .T. ) ;
#6 = AXIS2_PLACEMENT_3D ( 'NONE', #212, #54, #123 ) ;
#7 = CARTESIAN_POINT ( 'NONE',  ( 1.361677722148821693E-14, 0.0000000000000000000, 3.899999999999999023 ) ) ;
#8 = FACE_OUTER_BOUND ( 'NONE', #65, .T. ) ;
#9 = VERTEX_POINT ( 'NONE', #23 ) ;
#10 = LOCAL_TIME ( 11, 35, 22.00000000000000000, #115 ) ;
#11 = APPLICATION_PROTOCOL_DEFINITION ( 'international standard', 'config_control_design', 1994, #158 ) ;
#12 = EDGE_CURVE ( 'NONE', #9, #9, #101, .T. ) ;
#13 = DATE_AND_TIME ( #61, #76 ) ;
#14 = DATE_AND_TIME ( #202, #10 ) ;
#15 = CC_DESIGN_PERSON_AND_ORGANIZATION_ASSIGNMENT ( #96, #170, ( #173 ) ) ;
#16 = COORDINATED_UNIVERSAL_TIME_OFFSET ( 1, 0, .AHEAD. ) ;
#17 = AXIS2_PLACEMENT_3D ( 'NONE', #93, #195, #179 ) ;
#18 =( GEOMETRIC_REPRESENTATION_CONTEXT ( 3 ) GLOBAL_UNCERTAINTY_ASSIGNED_CONTEXT ( ( #104 ) ) GLOBAL_UNIT_ASSIGNED_CONTEXT ( ( #75, #217, #149 ) ) REPRESENTATION_CONTEXT ( 'NONE', 'WORKASPACE' ) );
#19 = ORIENTED_EDGE ( 'NONE', *, *, #151, .T. ) ;
#20 = AXIS2_PLACEMENT_3D ( 'NONE', #37, #214, #94 ) ;
#21 = ORGANIZATION ( 'UNSPECIFIED', 'UNSPECIFIED', '' ) ;
#22 = AXIS2_PLACEMENT_3D ( 'NONE', #177, #73, #147 ) ;
#23 = CARTESIAN_POINT ( 'NONE',  ( 1.316288464743861212E-13, 1.499999999999992228, 37.69999999999999574 ) ) ;
#24 = CARTESIAN_POINT ( 'NONE',  ( -6.413731847436034514E-31, 0.0000000000000000000, -1.836965810494968570E-16 ) ) ;
#25 = APPROVAL ( #184, 'UNSPECIFIED' ) ;
#26 = CARTESIAN_POINT ( 'NONE',  ( 1.361677722148822009E-14, 1.124819836996387048E-32, 3.899999999999999911 ) ) ;
#27 = CARTESIAN_POINT ( 'NONE',  ( 1.326762908760390423E-13, -4.653657836759941941E-15, 38.00000000000000000 ) ) ;
#28 = PERSON_AND_ORGANIZATION ( #58, #21 ) ;
#29 = DATE_AND_TIME ( #81, #199 ) ;
#30 = EDGE_LOOP ( 'NONE', ( #67 ) ) ;
#31 = ORIENTED_EDGE ( 'NONE', *, *, #60, .F. ) ;
#32 = AXIS2_PLACEMENT_3D ( 'NONE', #2, #66, #139 ) ;
#33 = DIRECTION ( 'NONE',  ( 0.0000000000000000000, 1.000000000000000000, 0.0000000000000000000 ) ) ;
#34 = CARTESIAN_POINT ( 'NONE',  ( -2.678659723847281548E-31, -1.313158267801488680E-32, -7.671986368785313570E-17 ) ) ;
#35 = FACE_OUTER_BOUND ( 'NONE', #157, .T. ) ;
#36 = FACE_OUTER_BOUND ( 'NONE', #45, .T. ) ;
#37 = CARTESIAN_POINT ( 'NONE',  ( 2.631846529996562177E-14, -4.465596958610342415E-16, 7.537908052713801155 ) ) ;
#38 = TOROIDAL_SURFACE ( 'NONE', #176, 8.624999999999998224, 8.000000000000000000 ) ;
#39 = DIRECTION ( 'NONE',  ( 3.491481338843133355E-15, -1.227517819005651059E-16, 1.000000000000000000 ) ) ;
#40 = DATE_AND_TIME ( #221, #71 ) ;
#41 = SECURITY_CLASSIFICATION_LEVEL ( 'unclassified' ) ;
#42 = APPROVAL_DATE_TIME ( #40, #154 ) ;
#43 = VERTEX_POINT ( 'NONE', #172 ) ;
#44 = PRODUCT_DEFINITION_FORMATION_WITH_SPECIFIED_SOURCE ( 'ANY', '', #183, .NOT_KNOWN. ) ;
#45 = EDGE_LOOP ( 'NONE', ( #206 ) ) ;
#46 = APPLICATION_CONTEXT ( 'configuration controlled 3d designs of mechanical parts and assemblies' ) ;
#47 = ORIENTED_EDGE ( 'NONE', *, *, #140, .T. ) ;
#48 = ORIENTED_EDGE ( 'NONE', *, *, #144, .T. ) ;
#49 = EDGE_LOOP ( 'NONE', ( #188 ) ) ;
#50 = CC_DESIGN_PERSON_AND_ORGANIZATION_ASSIGNMENT ( #186, #165, ( #183 ) ) ;
#51 = FACE_BOUND ( 'NONE', #99, .T. ) ;
#52 = CARTESIAN_POINT ( 'NONE',  ( 1.361677722148821693E-14, -0.6249999999999996669, 3.899999999999999023 ) ) ;
#53 = AXIS2_PLACEMENT_3D ( 'NONE', #189, #121, #126 ) ;
#54 = DIRECTION ( 'NONE',  ( 3.491481338843133355E-15, -1.224646799147353207E-16, 1.000000000000000000 ) ) ;
#55 = DIRECTION ( 'NONE',  ( -3.491481338843133355E-15, 1.224646799147353207E-16, -1.000000000000000000 ) ) ;
#56 = FACE_OUTER_BOUND ( 'NONE', #119, .T. ) ;
#57 = CC_DESIGN_PERSON_AND_ORGANIZATION_ASSIGNMENT ( #78, #218, ( #44 ) ) ;
#58 = PERSON ( 'UNSPECIFIED', 'UNSPECIFIED', 'UNSPECIFIED', ('UNSPECIFIED'), ('UNSPECIFIED'), ('UNSPECIFIED') ) ;
#59 = COORDINATED_UNIVERSAL_TIME_OFFSET ( 1, 0, .AHEAD. ) ;
#60 = EDGE_CURVE ( 'NONE', #111, #111, #114, .T. ) ;
#61 = CALENDAR_DATE ( 2021, 1, 11 ) ;
#62 = APPROVAL_DATE_TIME ( #13, #25 ) ;
#63 = DATE_TIME_ROLE ( 'creation_date' ) ;
#64 = MANIFOLD_SOLID_BREP ( 'Corps-Déplacer/Copier1[2]', #175 ) ;
#65 = EDGE_LOOP ( 'NONE', ( #19 ) ) ;
#66 = DIRECTION ( 'NONE',  ( 3.491481338843133355E-15, -1.227517819005651059E-16, 1.000000000000000000 ) ) ;
#67 = ORIENTED_EDGE ( 'NONE', *, *, #60, .T. ) ;
#68 = VERTEX_POINT ( 'NONE', #52 ) ;
#69 = DIRECTION ( 'NONE',  ( 3.491481338843133355E-15, -1.224646799147353207E-16, 1.000000000000000000 ) ) ;
#70 = AXIS2_PLACEMENT_3D ( 'NONE', #105, #180, #178 ) ;
#71 = LOCAL_TIME ( 11, 35, 22.00000000000000000, #152 ) ;
#72 = CIRCLE ( 'NONE', #100, 1.199999999999995959 ) ;
#73 = DIRECTION ( 'NONE',  ( -3.491481338843133355E-15, 1.224646799147353207E-16, -1.000000000000000000 ) ) ;
#74 = DIRECTION ( 'NONE',  ( -4.365721105233126240E-31, -1.000000000000000000, -1.227517819005651059E-16 ) ) ;
#75 =( LENGTH_UNIT ( ) NAMED_UNIT ( * ) SI_UNIT ( .MILLI., .METRE. ) );
#76 = LOCAL_TIME ( 11, 35, 22.00000000000000000, #16 ) ;
#77 = APPROVAL_STATUS ( 'not_yet_approved' ) ;
#78 = PERSON_AND_ORGANIZATION ( #58, #21 ) ;
#79 = DATE_TIME_ROLE ( 'classification_date' ) ;
#80 = PERSON_AND_ORGANIZATION_ROLE ( 'classification_officer' ) ;
#81 = CALENDAR_DATE ( 2021, 1, 11 ) ;
#82 = CIRCLE ( 'NONE', #20, 1.499999999999994893 ) ;
#83 = ORIENTED_EDGE ( 'NONE', *, *, #12, .T. ) ;
#84 = SHAPE_DEFINITION_REPRESENTATION ( #153, #198 ) ;
#85 = ORIENTED_EDGE ( 'NONE', *, *, #181, .F. ) ;
#86 = AXIS2_PLACEMENT_3D ( 'NONE', #27, #182, #163 ) ;
#87 = VERTEX_POINT ( 'NONE', #159 ) ;
#88 = APPROVAL ( #131, 'UNSPECIFIED' ) ;
#89 = PLANE ( 'NONE',  #166 ) ;
#90 = DESIGN_CONTEXT ( 'detailed design', #158, 'design' ) ;
#91 = DIRECTION ( 'NONE',  ( -4.285855558155653280E-31, -1.000000000000000000, -1.227517819005651305E-16 ) ) ;
#92 = ADVANCED_FACE ( 'NONE', ( #208 ), #122, .F. ) ;
#93 = CARTESIAN_POINT ( 'NONE',  ( 1.326762908760390423E-13, 8.998558695971047118E-33, 38.00000000000000000 ) ) ;
#94 = DIRECTION ( 'NONE',  ( 0.0000000000000000000, 1.000000000000000000, 0.0000000000000000000 ) ) ;
#95 = AXIS2_PLACEMENT_3D ( 'NONE', #216, #98, #117 ) ;
#96 = PERSON_AND_ORGANIZATION ( #58, #21 ) ;
#97 = DATE_AND_TIME ( #128, #215 ) ;
#98 = DIRECTION ( 'NONE',  ( 0.0000000000000000000, 0.0000000000000000000, 1.000000000000000000 ) ) ;
#99 = EDGE_LOOP ( 'NONE', ( #48 ) ) ;
#100 = AXIS2_PLACEMENT_3D ( 'NONE', #148, #55, #142 ) ;
#101 = CIRCLE ( 'NONE', #113, 1.499999999999996669 ) ;
#102 = PRODUCT_RELATED_PRODUCT_CATEGORY ( 'detail', '', ( #183 ) ) ;
#103 = FACE_OUTER_BOUND ( 'NONE', #118, .T. ) ;
#104 = UNCERTAINTY_MEASURE_WITH_UNIT (LENGTH_MEASURE( 1.000000000000000082E-05 ), #75, 'distance_accuracy_value', 'NONE');
#105 = CARTESIAN_POINT ( 'NONE',  ( -8.551680453529350800E-31, 2.999525725151307090E-32, -2.449298628175645296E-16 ) ) ;
#106 = PLANE ( 'NONE',  #17 ) ;
#107 = ADVANCED_FACE ( 'NONE', ( #56, #5 ), #160, .T. ) ;
#108 = DIRECTION ( 'NONE',  ( -4.285855558155653280E-31, -1.000000000000000000, -1.227517819005651305E-16 ) ) ;
#109 = AXIS2_PLACEMENT_3D ( 'NONE', #24, #213, #91 ) ;
#110 = CONICAL_SURFACE ( 'NONE', #86, 1.199999999999995959, 0.7853981633974468357 ) ;
#111 = VERTEX_POINT ( 'NONE', #164 ) ;
#112 = MECHANICAL_CONTEXT ( 'NONE', #46, 'mechanical' ) ;
#113 = AXIS2_PLACEMENT_3D ( 'NONE', #1, #137, #33 ) ;
#114 = CIRCLE ( 'NONE', #32, 0.6249999999999992228 ) ;
#115 = COORDINATED_UNIVERSAL_TIME_OFFSET ( 1, 0, .AHEAD. ) ;
#116 = APPLICATION_PROTOCOL_DEFINITION ( 'international standard', 'config_control_design', 1994, #46 ) ;
#117 = DIRECTION ( 'NONE',  ( 1.000000000000000000, 0.0000000000000000000, 0.0000000000000000000 ) ) ;
#118 = EDGE_LOOP ( 'NONE', ( #83 ) ) ;
#119 = EDGE_LOOP ( 'NONE', ( #174 ) ) ;
#120 = ORIENTED_EDGE ( 'NONE', *, *, #12, .F. ) ;
#121 = DIRECTION ( 'NONE',  ( 3.491481338843133355E-15, -1.227517819005651059E-16, 1.000000000000000000 ) ) ;
#122 = PLANE ( 'NONE',  #70 ) ;
#123 = DIRECTION ( 'NONE',  ( -4.275831445896958607E-31, -1.000000000000000000, -1.224646799147353207E-16 ) ) ;
#124 = CC_DESIGN_PERSON_AND_ORGANIZATION_ASSIGNMENT ( #169, #80, ( #207 ) ) ;
#125 = FACE_OUTER_BOUND ( 'NONE', #49, .T. ) ;
#126 = DIRECTION ( 'NONE',  ( 0.0000000000000000000, -1.000000000000000000, 0.0000000000000000000 ) ) ;
#127 = CC_DESIGN_DATE_AND_TIME_ASSIGNMENT ( #97, #63, ( #173 ) ) ;
#128 = CALENDAR_DATE ( 2021, 1, 11 ) ;
#129 = PERSON_AND_ORGANIZATION ( #58, #21 ) ;
#130 = CIRCLE ( 'NONE', #161, 0.6249999999999992228 ) ;
#131 = APPROVAL_STATUS ( 'not_yet_approved' ) ;
#132 = APPROVAL_ROLE ( '' ) ;
#133 = CIRCLE ( 'NONE', #53, 0.6249999999999992228 ) ;
#134 = APPROVAL_PERSON_ORGANIZATION ( #219, #88, #201 ) ;
#135 = EDGE_LOOP ( 'NONE', ( #31 ) ) ;
#136 = EDGE_LOOP ( 'NONE', ( #47 ) ) ;
#137 = DIRECTION ( 'NONE',  ( -3.491481338843133355E-15, 1.224646799147353207E-16, -1.000000000000000000 ) ) ;
#138 = APPROVAL_PERSON_ORGANIZATION ( #196, #25, #167 ) ;
#139 = DIRECTION ( 'NONE',  ( 0.0000000000000000000, -1.000000000000000000, 0.0000000000000000000 ) ) ;
#140 = EDGE_CURVE ( 'NONE', #87, #87, #82, .T. ) ;
#141 = FACE_OUTER_BOUND ( 'NONE', #30, .T. ) ;
#142 = DIRECTION ( 'NONE',  ( 0.0000000000000000000, 1.000000000000000000, 0.0000000000000000000 ) ) ;
#143 = MANIFOLD_SOLID_BREP ( 'Corps-Déplacer/Copier1[1]', #200 ) ;
#144 = EDGE_CURVE ( 'NONE', #4, #4, #72, .T. ) ;
#145 = CC_DESIGN_APPROVAL ( #154, ( #173 ) ) ;
#146 = PLANE ( 'NONE',  #6 ) ;
#147 = DIRECTION ( 'NONE',  ( 4.275831445896958607E-31, 1.000000000000000000, 1.224646799147353207E-16 ) ) ;
#148 = CARTESIAN_POINT ( 'NONE',  ( 1.326762908760390423E-13, -4.653657836759941941E-15, 38.00000000000000000 ) ) ;
#149 =( NAMED_UNIT ( * ) SI_UNIT ( $, .STERADIAN. ) SOLID_ANGLE_UNIT ( ) );
#150 = CC_DESIGN_SECURITY_CLASSIFICATION ( #207, ( #44 ) ) ;
#151 = EDGE_CURVE ( 'NONE', #68, #68, #133, .T. ) ;
#152 = COORDINATED_UNIVERSAL_TIME_OFFSET ( 1, 0, .AHEAD. ) ;
#153 = PRODUCT_DEFINITION_SHAPE ( 'NONE', 'NONE',  #173 ) ;
#154 = APPROVAL ( #77, 'UNSPECIFIED' ) ;
#155 = APPROVAL_PERSON_ORGANIZATION ( #28, #154, #132 ) ;
#156 = ADVANCED_FACE ( 'NONE', ( #141 ), #89, .T. ) ;
#157 = EDGE_LOOP ( 'NONE', ( #204 ) ) ;
#158 = APPLICATION_CONTEXT ( 'configuration controlled 3d designs of mechanical parts and assemblies' ) ;
#159 = CARTESIAN_POINT ( 'NONE',  ( 2.631846529996562177E-14, 1.499999999999994449, 7.537908052713801155 ) ) ;
#160 = CYLINDRICAL_SURFACE ( 'NONE', #109, 0.6249999999999992228 ) ;
#161 = AXIS2_PLACEMENT_3D ( 'NONE', #34, #192, #108 ) ;
#162 = FACE_OUTER_BOUND ( 'NONE', #136, .T. ) ;
#163 = DIRECTION ( 'NONE',  ( 0.0000000000000000000, 1.000000000000000000, 0.0000000000000000000 ) ) ;
#164 = CARTESIAN_POINT ( 'NONE',  ( 1.361677722148821693E-14, -0.6249999999999996669, 3.899999999999999023 ) ) ;
#165 = PERSON_AND_ORGANIZATION_ROLE ( 'design_owner' ) ;
#166 = AXIS2_PLACEMENT_3D ( 'NONE', #26, #69, #191 ) ;
#167 = APPROVAL_ROLE ( '' ) ;
#168 = ADVANCED_FACE ( 'NONE', ( #35 ), #146, .F. ) ;
#169 = PERSON_AND_ORGANIZATION ( #58, #21 ) ;
#170 = PERSON_AND_ORGANIZATION_ROLE ( 'creator' ) ;
#171 = CC_DESIGN_APPROVAL ( #88, ( #207 ) ) ;
#172 = CARTESIAN_POINT ( 'NONE',  ( -5.357319447694561345E-31, -0.6249999999999992228, -1.534397273757062467E-16 ) ) ;
#173 = PRODUCT_DEFINITION ( 'UNKNOWN', '', #44, #90 ) ;
#174 = ORIENTED_EDGE ( 'NONE', *, *, #181, .T. ) ;
#175 = CLOSED_SHELL ( 'NONE', ( #156, #107, #92 ) ) ;
#176 = AXIS2_PLACEMENT_3D ( 'NONE', #7, #39, #74 ) ;
#177 = CARTESIAN_POINT ( 'NONE',  ( 0.0000000000000000000, 0.0000000000000000000, 0.0000000000000000000 ) ) ;
#178 = DIRECTION ( 'NONE',  ( -4.275831445896958607E-31, -1.000000000000000000, -1.224646799147353207E-16 ) ) ;
#179 = DIRECTION ( 'NONE',  ( 4.275831445896958607E-31, 1.000000000000000000, 1.224646799147353207E-16 ) ) ;
#180 = DIRECTION ( 'NONE',  ( 3.491481338843133355E-15, -1.224646799147353207E-16, 1.000000000000000000 ) ) ;
#181 = EDGE_CURVE ( 'NONE', #43, #43, #130, .T. ) ;
#182 = DIRECTION ( 'NONE',  ( -3.491481338843133355E-15, 1.224646799147353207E-16, -1.000000000000000000 ) ) ;
#183 = PRODUCT ( '48092', '48092', '', ( #112 ) ) ;
#184 = APPROVAL_STATUS ( 'not_yet_approved' ) ;
#185 = COORDINATED_UNIVERSAL_TIME_OFFSET ( 1, 0, .AHEAD. ) ;
#186 = PERSON_AND_ORGANIZATION ( #58, #21 ) ;
#187 = EDGE_LOOP ( 'NONE', ( #85 ) ) ;
#188 = ORIENTED_EDGE ( 'NONE', *, *, #140, .F. ) ;
#189 = CARTESIAN_POINT ( 'NONE',  ( 1.361677722148821693E-14, -4.787319494122037009E-16, 3.899999999999999023 ) ) ;
#190 = ADVANCED_FACE ( 'NONE', ( #36 ), #106, .F. ) ;
#191 = DIRECTION ( 'NONE',  ( -4.275831445896958607E-31, -1.000000000000000000, -1.224646799147353207E-16 ) ) ;
#192 = DIRECTION ( 'NONE',  ( 3.491481338843133355E-15, -1.227517819005651059E-16, 1.000000000000000000 ) ) ;
#193 = CYLINDRICAL_SURFACE ( 'NONE', #22, 1.499999999999994893 ) ;
#194 = CC_DESIGN_DATE_AND_TIME_ASSIGNMENT ( #14, #79, ( #207 ) ) ;
#195 = DIRECTION ( 'NONE',  ( -3.491481338843133355E-15, 1.224646799147353207E-16, -1.000000000000000000 ) ) ;
#196 = PERSON_AND_ORGANIZATION ( #58, #21 ) ;
#197 = PERSON_AND_ORGANIZATION_ROLE ( 'design_supplier' ) ;
#198 = ADVANCED_BREP_SHAPE_REPRESENTATION ( '48092', ( #143, #64, #95 ), #18 ) ;
#199 = LOCAL_TIME ( 11, 35, 22.00000000000000000, #185 ) ;
#200 = CLOSED_SHELL ( 'NONE', ( #222, #205, #190, #210, #168 ) ) ;
#201 = APPROVAL_ROLE ( '' ) ;
#202 = CALENDAR_DATE ( 2021, 1, 11 ) ;
#203 = APPROVAL_DATE_TIME ( #29, #88 ) ;
#204 = ORIENTED_EDGE ( 'NONE', *, *, #151, .F. ) ;
#205 = ADVANCED_FACE ( 'NONE', ( #209, #51 ), #110, .T. ) ;
#206 = ORIENTED_EDGE ( 'NONE', *, *, #144, .F. ) ;
#207 = SECURITY_CLASSIFICATION ( '', '', #41 ) ;
#208 = FACE_OUTER_BOUND ( 'NONE', #187, .T. ) ;
#209 = FACE_OUTER_BOUND ( 'NONE', #223, .T. ) ;
#210 = ADVANCED_FACE ( 'NONE', ( #8, #162 ), #38, .F. ) ;
#211 = CARTESIAN_POINT ( 'NONE',  ( 1.326762908760390423E-13, 1.199999999999991518, 38.00000000000000000 ) ) ;
#212 = CARTESIAN_POINT ( 'NONE',  ( 1.361677722148822009E-14, 1.124819836996387048E-32, 3.899999999999999911 ) ) ;
#213 = DIRECTION ( 'NONE',  ( 3.491481338843133355E-15, -1.227517819005651059E-16, 1.000000000000000000 ) ) ;
#214 = DIRECTION ( 'NONE',  ( -3.491481338843133355E-15, 1.227517819005651059E-16, -1.000000000000000000 ) ) ;
#215 = LOCAL_TIME ( 11, 35, 22.00000000000000000, #59 ) ;
#216 = CARTESIAN_POINT ( 'NONE',  ( 0.0000000000000000000, 0.0000000000000000000, 0.0000000000000000000 ) ) ;
#217 =( NAMED_UNIT ( * ) PLANE_ANGLE_UNIT ( ) SI_UNIT ( $, .RADIAN. ) );
#218 = PERSON_AND_ORGANIZATION_ROLE ( 'creator' ) ;
#219 = PERSON_AND_ORGANIZATION ( #58, #21 ) ;
#220 = CC_DESIGN_APPROVAL ( #25, ( #44 ) ) ;
#221 = CALENDAR_DATE ( 2021, 1, 11 ) ;
#222 = ADVANCED_FACE ( 'NONE', ( #103, #125 ), #193, .T. ) ;
#223 = EDGE_LOOP ( 'NONE', ( #120 ) ) ;
ENDSEC;
END-ISO-10303-21;
