ISO-10303-21;
HEADER;
FILE_DESCRIPTION (( 'STEP AP203' ),
    '1' );
FILE_NAME ('48091.step',
    '2021-11-01T10:35:22',
    ( '' ),
    ( '' ),
    'SwSTEP 2.0',
    'SolidWorks 2019',
    '' );
FILE_SCHEMA (( 'CONFIG_CONTROL_DESIGN' ));
ENDSEC;

DATA;
#1 = ORIENTED_EDGE ( 'NONE', *, *, #172, .F. ) ;
#2 = APPROVAL_STATUS ( 'not_yet_approved' ) ;
#3 = CARTESIAN_POINT ( 'NONE',  ( 0.0000000000000000000, 0.0000000000000000000, 0.0000000000000000000 ) ) ;
#4 = CIRCLE ( 'NONE', #39, 1.199999999999995959 ) ;
#5 = CARTESIAN_POINT ( 'NONE',  ( 2.442415424384778731E-14, -8.529038146150664646E-16, 6.995355802743738138 ) ) ;
#6 = SHAPE_DEFINITION_REPRESENTATION ( #226, #119 ) ;
#7 = FACE_OUTER_BOUND ( 'NONE', #74, .T. ) ;
#8 = DIRECTION ( 'NONE',  ( 3.491481338843133355E-15, -1.219242935835426903E-16, 1.000000000000000000 ) ) ;
#9 = AXIS2_PLACEMENT_3D ( 'NONE', #145, #167, #231 ) ;
#10 = EDGE_CURVE ( 'NONE', #242, #242, #179, .T. ) ;
#11 = ORIENTED_EDGE ( 'NONE', *, *, #227, .F. ) ;
#12 = PERSON_AND_ORGANIZATION_ROLE ( 'creator' ) ;
#13 = VERTEX_POINT ( 'NONE', #51 ) ;
#14 = AXIS2_PLACEMENT_3D ( 'NONE', #210, #112, #82 ) ;
#15 = PERSON_AND_ORGANIZATION_ROLE ( 'design_owner' ) ;
#16 = AXIS2_PLACEMENT_3D ( 'NONE', #66, #212, #193 ) ;
#17 = AXIS2_PLACEMENT_3D ( 'NONE', #95, #128, #49 ) ;
#18 = ORIENTED_EDGE ( 'NONE', *, *, #10, .F. ) ;
#19 = ORIENTED_EDGE ( 'NONE', *, *, #178, .F. ) ;
#20 = EDGE_CURVE ( 'NONE', #174, #174, #88, .T. ) ;
#21 = ORIENTED_EDGE ( 'NONE', *, *, #10, .T. ) ;
#22 = APPROVAL_STATUS ( 'not_yet_approved' ) ;
#23 = FACE_OUTER_BOUND ( 'NONE', #186, .T. ) ;
#24 = PERSON_AND_ORGANIZATION ( #72, #175 ) ;
#25 = DIRECTION ( 'NONE',  ( -4.315975723326284799E-31, -1.000000000000000000, -1.219242935835426903E-16 ) ) ;
#26 = DIRECTION ( 'NONE',  ( 3.491481338843133355E-15, -1.224646799147353207E-16, 1.000000000000000000 ) ) ;
#27 = ADVANCED_FACE ( 'NONE', ( #116, #207 ), #208, .F. ) ;
#28 = FACE_BOUND ( 'NONE', #41, .T. ) ;
#29 = LOCAL_TIME ( 11, 35, 22.00000000000000000, #184 ) ;
#30 = APPROVAL_DATE_TIME ( #121, #139 ) ;
#31 = DIRECTION ( 'NONE',  ( -3.491481338843133355E-15, 1.224646799147353207E-16, -1.000000000000000000 ) ) ;
#32 = DIRECTION ( 'NONE',  ( 0.0000000000000000000, 0.0000000000000000000, 1.000000000000000000 ) ) ;
#33 = AXIS2_PLACEMENT_3D ( 'NONE', #47, #151, #25 ) ;
#34 = AXIS2_PLACEMENT_3D ( 'NONE', #106, #67, #236 ) ;
#35 = CARTESIAN_POINT ( 'NONE',  ( 1.326762908760390423E-13, 1.199999999999991518, 38.00000000000000000 ) ) ;
#36 = AXIS2_PLACEMENT_3D ( 'NONE', #133, #211, #48 ) ;
#37 = COORDINATED_UNIVERSAL_TIME_OFFSET ( 1, 0, .AHEAD. ) ;
#38 = EDGE_LOOP ( 'NONE', ( #85 ) ) ;
#39 = AXIS2_PLACEMENT_3D ( 'NONE', #84, #64, #132 ) ;
#40 = EDGE_LOOP ( 'NONE', ( #78 ) ) ;
#41 = EDGE_LOOP ( 'NONE', ( #202 ) ) ;
#42 = SECURITY_CLASSIFICATION_LEVEL ( 'unclassified' ) ;
#43 = DIRECTION ( 'NONE',  ( 3.491481338843133355E-15, -1.219242935835426903E-16, 1.000000000000000000 ) ) ;
#44 = MANIFOLD_SOLID_BREP ( 'Corps-Déplacer/Copier1[2]', #143 ) ;
#45 = CARTESIAN_POINT ( 'NONE',  ( -8.551680453529350800E-31, 2.999525725151307090E-32, -2.449298628175645296E-16 ) ) ;
#46 = ADVANCED_FACE ( 'NONE', ( #23 ), #62, .F. ) ;
#47 = CARTESIAN_POINT ( 'NONE',  ( 1.047444401652939849E-14, -4.336808689942017736E-16, 2.999999999999999556 ) ) ;
#48 = DIRECTION ( 'NONE',  ( -4.275831445896958607E-31, -1.000000000000000000, -1.224646799147353207E-16 ) ) ;
#49 = DIRECTION ( 'NONE',  ( -4.256963957985708889E-31, -1.000000000000000000, -1.219242935835426903E-16 ) ) ;
#50 = CC_DESIGN_APPROVAL ( #139, ( #163 ) ) ;
#51 = CARTESIAN_POINT ( 'NONE',  ( 1.316288464743861212E-13, 1.499999999999992228, 37.69999999999999574 ) ) ;
#52 = APPLICATION_PROTOCOL_DEFINITION ( 'international standard', 'config_control_design', 1994, #239 ) ;
#53 =( NAMED_UNIT ( * ) PLANE_ANGLE_UNIT ( ) SI_UNIT ( $, .RADIAN. ) );
#54 = CONICAL_SURFACE ( 'NONE', #9, 1.199999999999995959, 0.7853981633974468357 ) ;
#55 = VERTEX_POINT ( 'NONE', #35 ) ;
#56 = ORIENTED_EDGE ( 'NONE', *, *, #20, .F. ) ;
#57 = LOCAL_TIME ( 11, 35, 22.00000000000000000, #58 ) ;
#58 = COORDINATED_UNIVERSAL_TIME_OFFSET ( 1, 0, .AHEAD. ) ;
#59 = ORIENTED_EDGE ( 'NONE', *, *, #73, .F. ) ;
#60 = COORDINATED_UNIVERSAL_TIME_OFFSET ( 1, 0, .AHEAD. ) ;
#61 = DIRECTION ( 'NONE',  ( -4.275831445896958607E-31, -1.000000000000000000, -1.224646799147353207E-16 ) ) ;
#62 = PLANE ( 'NONE',  #159 ) ;
#63 = PERSON_AND_ORGANIZATION ( #72, #175 ) ;
#64 = DIRECTION ( 'NONE',  ( -3.491481338843133355E-15, 1.224646799147353207E-16, -1.000000000000000000 ) ) ;
#65 = FACE_BOUND ( 'NONE', #40, .T. ) ;
#66 = CARTESIAN_POINT ( 'NONE',  ( 1.228176774875465645E-14, -4.288855392308103452E-16, 3.517638090205028600 ) ) ;
#67 = DIRECTION ( 'NONE',  ( 3.491481338843133355E-15, -1.224646799147353207E-16, 1.000000000000000000 ) ) ;
#68 = AXIS2_PLACEMENT_3D ( 'NONE', #195, #32, #107 ) ;
#69 = DIRECTION ( 'NONE',  ( 4.275831445896958607E-31, 1.000000000000000000, 1.224646799147353207E-16 ) ) ;
#70 = PERSON_AND_ORGANIZATION ( #72, #175 ) ;
#71 = CIRCLE ( 'NONE', #16, 0.5681483474218604890 ) ;
#72 = PERSON ( 'UNSPECIFIED', 'UNSPECIFIED', 'UNSPECIFIED', ('UNSPECIFIED'), ('UNSPECIFIED'), ('UNSPECIFIED') ) ;
#73 = EDGE_CURVE ( 'NONE', #86, #86, #216, .T. ) ;
#74 = EDGE_LOOP ( 'NONE', ( #59 ) ) ;
#75 = PERSON_AND_ORGANIZATION ( #72, #175 ) ;
#76 = CALENDAR_DATE ( 2021, 1, 11 ) ;
#77 = ADVANCED_FACE ( 'NONE', ( #191, #100 ), #190, .T. ) ;
#78 = ORIENTED_EDGE ( 'NONE', *, *, #178, .T. ) ;
#79 = CC_DESIGN_APPROVAL ( #142, ( #230 ) ) ;
#80 = DIRECTION ( 'NONE',  ( 0.0000000000000000000, -1.000000000000000000, 0.0000000000000000000 ) ) ;
#81 = APPROVAL_DATE_TIME ( #124, #142 ) ;
#82 = DIRECTION ( 'NONE',  ( 0.0000000000000000000, 1.000000000000000000, 0.0000000000000000000 ) ) ;
#83 = CYLINDRICAL_SURFACE ( 'NONE', #144, 1.499999999999994893 ) ;
#84 = CARTESIAN_POINT ( 'NONE',  ( 1.326762908760390423E-13, -4.653657836759941941E-15, 38.00000000000000000 ) ) ;
#85 = ORIENTED_EDGE ( 'NONE', *, *, #98, .F. ) ;
#86 = VERTEX_POINT ( 'NONE', #213 ) ;
#87 =( NAMED_UNIT ( * ) SI_UNIT ( $, .STERADIAN. ) SOLID_ANGLE_UNIT ( ) );
#88 = CIRCLE ( 'NONE', #114, 0.4999999999999998890 ) ;
#89 = APPROVAL_PERSON_ORGANIZATION ( #70, #139, #153 ) ;
#90 = CARTESIAN_POINT ( 'NONE',  ( -2.777407203388981862E-30, -0.5000000000000000000, -7.954810390907737815E-16 ) ) ;
#91 = EDGE_LOOP ( 'NONE', ( #94 ) ) ;
#92 = PLANE ( 'NONE',  #34 ) ;
#93 = CC_DESIGN_DATE_AND_TIME_ASSIGNMENT ( #127, #96, ( #163 ) ) ;
#94 = ORIENTED_EDGE ( 'NONE', *, *, #98, .T. ) ;
#95 = CARTESIAN_POINT ( 'NONE',  ( 0.0000000000000000000, 0.0000000000000000000, 0.0000000000000000000 ) ) ;
#96 = DATE_TIME_ROLE ( 'creation_date' ) ;
#97 = LOCAL_TIME ( 11, 35, 22.00000000000000000, #37 ) ;
#98 = EDGE_CURVE ( 'NONE', #13, #13, #150, .T. ) ;
#99 = DIRECTION ( 'NONE',  ( -3.491481338843133355E-15, 1.224646799147353207E-16, -1.000000000000000000 ) ) ;
#100 = FACE_OUTER_BOUND ( 'NONE', #204, .T. ) ;
#101 = FACE_OUTER_BOUND ( 'NONE', #91, .T. ) ;
#102 = FACE_OUTER_BOUND ( 'NONE', #217, .T. ) ;
#103 = LOCAL_TIME ( 11, 35, 22.00000000000000000, #201 ) ;
#104 = ADVANCED_FACE ( 'NONE', ( #147, #65 ), #54, .T. ) ;
#105 = CALENDAR_DATE ( 2021, 1, 11 ) ;
#106 = CARTESIAN_POINT ( 'NONE',  ( 1.047444401652940007E-14, 1.124819836996387048E-32, 3.000000000000000000 ) ) ;
#107 = DIRECTION ( 'NONE',  ( 1.000000000000000000, 0.0000000000000000000, 0.0000000000000000000 ) ) ;
#108 = CARTESIAN_POINT ( 'NONE',  ( 1.047444401652939849E-14, -0.5000000000000002220, 2.999999999999999556 ) ) ;
#109 = CALENDAR_DATE ( 2021, 1, 11 ) ;
#110 = EDGE_LOOP ( 'NONE', ( #56 ) ) ;
#111 = PERSON_AND_ORGANIZATION_ROLE ( 'classification_officer' ) ;
#112 = DIRECTION ( 'NONE',  ( -3.491481338843133355E-15, 1.224646799147353207E-16, -1.000000000000000000 ) ) ;
#113 = PERSON_AND_ORGANIZATION_ROLE ( 'creator' ) ;
#114 = AXIS2_PLACEMENT_3D ( 'NONE', #129, #43, #229 ) ;
#115 = DIRECTION ( 'NONE',  ( -3.491481338843133355E-15, 1.219242935835426903E-16, -1.000000000000000000 ) ) ;
#116 = FACE_OUTER_BOUND ( 'NONE', #160, .T. ) ;
#117 = DIRECTION ( 'NONE',  ( 4.275831445896958607E-31, 1.000000000000000000, 1.224646799147353207E-16 ) ) ;
#118 = PRODUCT_RELATED_PRODUCT_CATEGORY ( 'detail', '', ( #171 ) ) ;
#119 = ADVANCED_BREP_SHAPE_REPRESENTATION ( '48091', ( #200, #44, #68 ), #223 ) ;
#120 = AXIS2_PLACEMENT_3D ( 'NONE', #188, #206, #228 ) ;
#121 = DATE_AND_TIME ( #105, #57 ) ;
#122 = CC_DESIGN_PERSON_AND_ORGANIZATION_ASSIGNMENT ( #165, #111, ( #199 ) ) ;
#123 = AXIS2_PLACEMENT_3D ( 'NONE', #168, #8, #166 ) ;
#124 = DATE_AND_TIME ( #205, #180 ) ;
#125 = ORIENTED_EDGE ( 'NONE', *, *, #73, .T. ) ;
#126 = APPROVAL ( #2, 'UNSPECIFIED' ) ;
#127 = DATE_AND_TIME ( #109, #29 ) ;
#128 = DIRECTION ( 'NONE',  ( 3.491481338843133355E-15, -1.219242935835426903E-16, 1.000000000000000000 ) ) ;
#129 = CARTESIAN_POINT ( 'NONE',  ( 1.047444401652939849E-14, -3.657728807506280215E-16, 2.999999999999999556 ) ) ;
#130 = PLANE ( 'NONE',  #36 ) ;
#131 = ADVANCED_FACE ( 'NONE', ( #101, #7 ), #83, .T. ) ;
#132 = DIRECTION ( 'NONE',  ( 0.0000000000000000000, 1.000000000000000000, 0.0000000000000000000 ) ) ;
#133 = CARTESIAN_POINT ( 'NONE',  ( 1.047444401652940007E-14, 1.124819836996387048E-32, 3.000000000000000000 ) ) ;
#134 = AXIS2_PLACEMENT_3D ( 'NONE', #170, #152, #233 ) ;
#135 = CARTESIAN_POINT ( 'NONE',  ( 1.228176774875465645E-14, -0.5681483474218609331, 3.517638090205028600 ) ) ;
#136 = CC_DESIGN_PERSON_AND_ORGANIZATION_ASSIGNMENT ( #224, #113, ( #230 ) ) ;
#137 = VERTEX_POINT ( 'NONE', #90 ) ;
#138 = CC_DESIGN_PERSON_AND_ORGANIZATION_ASSIGNMENT ( #24, #189, ( #230 ) ) ;
#139 = APPROVAL ( #140, 'UNSPECIFIED' ) ;
#140 = APPROVAL_STATUS ( 'not_yet_approved' ) ;
#141 = APPROVAL_ROLE ( '' ) ;
#142 = APPROVAL ( #22, 'UNSPECIFIED' ) ;
#143 = CLOSED_SHELL ( 'NONE', ( #198, #77, #46 ) ) ;
#144 = AXIS2_PLACEMENT_3D ( 'NONE', #3, #99, #117 ) ;
#145 = CARTESIAN_POINT ( 'NONE',  ( 1.326762908760390423E-13, -4.653657836759941941E-15, 38.00000000000000000 ) ) ;
#146 = APPROVAL_DATE_TIME ( #220, #126 ) ;
#147 = FACE_OUTER_BOUND ( 'NONE', #38, .T. ) ;
#148 = DATE_TIME_ROLE ( 'classification_date' ) ;
#149 = EDGE_LOOP ( 'NONE', ( #21 ) ) ;
#150 = CIRCLE ( 'NONE', #14, 1.499999999999996669 ) ;
#151 = DIRECTION ( 'NONE',  ( 3.491481338843133355E-15, -1.219242935835426903E-16, 1.000000000000000000 ) ) ;
#152 = DIRECTION ( 'NONE',  ( 3.491481338843133355E-15, -1.219242935835426903E-16, 1.000000000000000000 ) ) ;
#153 = APPROVAL_ROLE ( '' ) ;
#154 =( LENGTH_UNIT ( ) NAMED_UNIT ( * ) SI_UNIT ( .MILLI., .METRE. ) );
#155 = APPLICATION_CONTEXT ( 'configuration controlled 3d designs of mechanical parts and assemblies' ) ;
#156 = APPLICATION_PROTOCOL_DEFINITION ( 'international standard', 'config_control_design', 1994, #155 ) ;
#157 = ORIENTED_EDGE ( 'NONE', *, *, #172, .T. ) ;
#158 = CC_DESIGN_DATE_AND_TIME_ASSIGNMENT ( #222, #148, ( #199 ) ) ;
#159 = AXIS2_PLACEMENT_3D ( 'NONE', #45, #26, #61 ) ;
#160 = EDGE_LOOP ( 'NONE', ( #162 ) ) ;
#161 = APPROVAL_ROLE ( '' ) ;
#162 = ORIENTED_EDGE ( 'NONE', *, *, #20, .T. ) ;
#163 = PRODUCT_DEFINITION ( 'UNKNOWN', '', #230, #240 ) ;
#164 = AXIS2_PLACEMENT_3D ( 'NONE', #196, #31, #69 ) ;
#165 = PERSON_AND_ORGANIZATION ( #72, #175 ) ;
#166 = DIRECTION ( 'NONE',  ( -4.256963957985712392E-31, -1.000000000000000000, -1.219242935835427396E-16 ) ) ;
#167 = DIRECTION ( 'NONE',  ( -3.491481338843133355E-15, 1.224646799147353207E-16, -1.000000000000000000 ) ) ;
#168 = CARTESIAN_POINT ( 'NONE',  ( -2.564559005489696199E-30, 8.955569706732215073E-32, -7.345188922990024363E-16 ) ) ;
#169 = CONICAL_SURFACE ( 'NONE', #134, 2.499999999999995559, 0.2617993877991429685 ) ;
#170 = CARTESIAN_POINT ( 'NONE',  ( 3.745453999408931511E-14, -1.307931472945803901E-15, 10.72740661031271614 ) ) ;
#171 = PRODUCT ( '48091', '48091', '', ( #176 ) ) ;
#172 = EDGE_CURVE ( 'NONE', #137, #137, #203, .T. ) ;
#173 = PERSON_AND_ORGANIZATION ( #72, #175 ) ;
#174 = VERTEX_POINT ( 'NONE', #214 ) ;
#175 = ORGANIZATION ( 'UNSPECIFIED', 'UNSPECIFIED', '' ) ;
#176 = MECHANICAL_CONTEXT ( 'NONE', #239, 'mechanical' ) ;
#177 = PERSON_AND_ORGANIZATION ( #72, #175 ) ;
#178 = EDGE_CURVE ( 'NONE', #55, #55, #4, .T. ) ;
#179 = CIRCLE ( 'NONE', #120, 0.4999999999999998890 ) ;
#180 = LOCAL_TIME ( 11, 35, 22.00000000000000000, #60 ) ;
#181 = CC_DESIGN_PERSON_AND_ORGANIZATION_ASSIGNMENT ( #173, #12, ( #163 ) ) ;
#182 = UNCERTAINTY_MEASURE_WITH_UNIT (LENGTH_MEASURE( 1.000000000000000082E-05 ), #154, 'distance_accuracy_value', 'NONE');
#183 = EDGE_LOOP ( 'NONE', ( #11 ) ) ;
#184 = COORDINATED_UNIVERSAL_TIME_OFFSET ( 1, 0, .AHEAD. ) ;
#185 = AXIS2_PLACEMENT_3D ( 'NONE', #5, #115, #80 ) ;
#186 = EDGE_LOOP ( 'NONE', ( #1 ) ) ;
#187 = EDGE_LOOP ( 'NONE', ( #157 ) ) ;
#188 = CARTESIAN_POINT ( 'NONE',  ( 1.047444401652939849E-14, -3.657728807506280215E-16, 2.999999999999999556 ) ) ;
#189 = PERSON_AND_ORGANIZATION_ROLE ( 'design_supplier' ) ;
#190 = CYLINDRICAL_SURFACE ( 'NONE', #17, 0.5000000000000000000 ) ;
#191 = FACE_OUTER_BOUND ( 'NONE', #187, .T. ) ;
#192 = FACE_OUTER_BOUND ( 'NONE', #149, .T. ) ;
#193 = DIRECTION ( 'NONE',  ( 0.0000000000000000000, -1.000000000000000000, 0.0000000000000000000 ) ) ;
#194 = FACE_OUTER_BOUND ( 'NONE', #110, .T. ) ;
#195 = CARTESIAN_POINT ( 'NONE',  ( 0.0000000000000000000, 0.0000000000000000000, 0.0000000000000000000 ) ) ;
#196 = CARTESIAN_POINT ( 'NONE',  ( 1.326762908760390423E-13, 8.998558695971047118E-33, 38.00000000000000000 ) ) ;
#197 = CC_DESIGN_PERSON_AND_ORGANIZATION_ASSIGNMENT ( #177, #15, ( #171 ) ) ;
#198 = ADVANCED_FACE ( 'NONE', ( #192 ), #130, .T. ) ;
#199 = SECURITY_CLASSIFICATION ( '', '', #42 ) ;
#200 = MANIFOLD_SOLID_BREP ( 'Corps-Déplacer/Copier1[1]', #234 ) ;
#201 = COORDINATED_UNIVERSAL_TIME_OFFSET ( 1, 0, .AHEAD. ) ;
#202 = ORIENTED_EDGE ( 'NONE', *, *, #227, .T. ) ;
#203 = CIRCLE ( 'NONE', #123, 0.5000000000000000000 ) ;
#204 = EDGE_LOOP ( 'NONE', ( #18 ) ) ;
#205 = CALENDAR_DATE ( 2021, 1, 11 ) ;
#206 = DIRECTION ( 'NONE',  ( 3.491481338843133355E-15, -1.219242935835426903E-16, 1.000000000000000000 ) ) ;
#207 = FACE_OUTER_BOUND ( 'NONE', #183, .T. ) ;
#208 = TOROIDAL_SURFACE ( 'NONE', #33, 2.500000000000000444, 2.000000000000000000 ) ;
#209 = APPROVAL_PERSON_ORGANIZATION ( #75, #142, #161 ) ;
#210 = CARTESIAN_POINT ( 'NONE',  ( 1.316288464743861212E-13, -4.616918432785521081E-15, 37.69999999999999574 ) ) ;
#211 = DIRECTION ( 'NONE',  ( 3.491481338843133355E-15, -1.224646799147353207E-16, 1.000000000000000000 ) ) ;
#212 = DIRECTION ( 'NONE',  ( 3.491481338843133355E-15, -1.219242935835426903E-16, 1.000000000000000000 ) ) ;
#213 = CARTESIAN_POINT ( 'NONE',  ( 2.442415424384778731E-14, -1.499999999999995781, 6.995355802743738138 ) ) ;
#214 = CARTESIAN_POINT ( 'NONE',  ( 1.047444401652939849E-14, -0.5000000000000002220, 2.999999999999999556 ) ) ;
#215 = VERTEX_POINT ( 'NONE', #135 ) ;
#216 = CIRCLE ( 'NONE', #185, 1.499999999999994893 ) ;
#217 = EDGE_LOOP ( 'NONE', ( #125 ) ) ;
#218 = APPROVAL_PERSON_ORGANIZATION ( #63, #126, #141 ) ;
#219 = PLANE ( 'NONE',  #164 ) ;
#220 = DATE_AND_TIME ( #76, #97 ) ;
#221 = ADVANCED_FACE ( 'NONE', ( #28, #102 ), #169, .T. ) ;
#222 = DATE_AND_TIME ( #243, #103 ) ;
#223 =( GEOMETRIC_REPRESENTATION_CONTEXT ( 3 ) GLOBAL_UNCERTAINTY_ASSIGNED_CONTEXT ( ( #182 ) ) GLOBAL_UNIT_ASSIGNED_CONTEXT ( ( #154, #53, #87 ) ) REPRESENTATION_CONTEXT ( 'NONE', 'WORKASPACE' ) );
#224 = PERSON_AND_ORGANIZATION ( #72, #175 ) ;
#225 = FACE_OUTER_BOUND ( 'NONE', #241, .T. ) ;
#226 = PRODUCT_DEFINITION_SHAPE ( 'NONE', 'NONE',  #163 ) ;
#227 = EDGE_CURVE ( 'NONE', #215, #215, #71, .T. ) ;
#228 = DIRECTION ( 'NONE',  ( 0.0000000000000000000, -1.000000000000000000, 0.0000000000000000000 ) ) ;
#229 = DIRECTION ( 'NONE',  ( 0.0000000000000000000, -1.000000000000000000, 0.0000000000000000000 ) ) ;
#230 = PRODUCT_DEFINITION_FORMATION_WITH_SPECIFIED_SOURCE ( 'ANY', '', #171, .NOT_KNOWN. ) ;
#231 = DIRECTION ( 'NONE',  ( 0.0000000000000000000, 1.000000000000000000, 0.0000000000000000000 ) ) ;
#232 = ADVANCED_FACE ( 'NONE', ( #225 ), #219, .F. ) ;
#233 = DIRECTION ( 'NONE',  ( 0.0000000000000000000, -1.000000000000000000, 0.0000000000000000000 ) ) ;
#234 = CLOSED_SHELL ( 'NONE', ( #131, #104, #232, #221, #27, #238 ) ) ;
#235 = CC_DESIGN_APPROVAL ( #126, ( #199 ) ) ;
#236 = DIRECTION ( 'NONE',  ( -4.275831445896958607E-31, -1.000000000000000000, -1.224646799147353207E-16 ) ) ;
#237 = CC_DESIGN_SECURITY_CLASSIFICATION ( #199, ( #230 ) ) ;
#238 = ADVANCED_FACE ( 'NONE', ( #194 ), #92, .F. ) ;
#239 = APPLICATION_CONTEXT ( 'configuration controlled 3d designs of mechanical parts and assemblies' ) ;
#240 = DESIGN_CONTEXT ( 'detailed design', #155, 'design' ) ;
#241 = EDGE_LOOP ( 'NONE', ( #19 ) ) ;
#242 = VERTEX_POINT ( 'NONE', #108 ) ;
#243 = CALENDAR_DATE ( 2021, 1, 11 ) ;
ENDSEC;
END-ISO-10303-21;
