ISO-10303-21;
HEADER;
FILE_DESCRIPTION (( 'STEP AP203' ),
    '1' );
FILE_NAME ('48090.step',
    '2021-11-01T10:35:21',
    ( '' ),
    ( '' ),
    'SwSTEP 2.0',
    'SolidWorks 2019',
    '' );
FILE_SCHEMA (( 'CONFIG_CONTROL_DESIGN' ));
ENDSEC;

DATA;
#1 = EDGE_CURVE ( 'NONE', #8, #8, #28, .T. ) ;
#2 = DIRECTION ( 'NONE',  ( -3.491481338843133355E-15, 1.224646799147353207E-16, -1.000000000000000000 ) ) ;
#3 = PLANE ( 'NONE',  #100 ) ;
#4 = CC_DESIGN_SECURITY_CLASSIFICATION ( #83, ( #185 ) ) ;
#5 = CARTESIAN_POINT ( 'NONE',  ( -2.511346956014874608E-30, 8.769750539659140426E-32, -7.192783556010594768E-16 ) ) ;
#6 = FACE_OUTER_BOUND ( 'NONE', #137, .T. ) ;
#7 = CARTESIAN_POINT ( 'NONE',  ( 8.379555213223520053E-15, 6.938893903907249085E-16, 2.400000000000000355 ) ) ;
#8 = VERTEX_POINT ( 'NONE', #94 ) ;
#9 = AXIS2_PLACEMENT_3D ( 'NONE', #107, #193, #211 ) ;
#10 = CC_DESIGN_PERSON_AND_ORGANIZATION_ASSIGNMENT ( #88, #170, ( #201 ) ) ;
#11 = DIRECTION ( 'NONE',  ( 0.0000000000000000000, 0.0000000000000000000, 1.000000000000000000 ) ) ;
#12 = PERSON_AND_ORGANIZATION ( #141, #162 ) ;
#13 = AXIS2_PLACEMENT_3D ( 'NONE', #21, #174, #149 ) ;
#14 = VERTEX_POINT ( 'NONE', #29 ) ;
#15 = PRODUCT ( '48090', '48090', '', ( #53 ) ) ;
#16 = APPROVAL_DATE_TIME ( #142, #147 ) ;
#17 = CIRCLE ( 'NONE', #200, 0.3749999999999997224 ) ;
#18 = ORIENTED_EDGE ( 'NONE', *, *, #215, .F. ) ;
#19 = ADVANCED_FACE ( 'NONE', ( #123, #64 ), #195, .T. ) ;
#20 = DIRECTION ( 'NONE',  ( -3.491481338843133355E-15, 1.219242935835426903E-16, -1.000000000000000000 ) ) ;
#21 = CARTESIAN_POINT ( 'NONE',  ( 3.698844940956363554E-14, -1.291655354087020920E-15, 10.59391296125884097 ) ) ;
#22 = FACE_OUTER_BOUND ( 'NONE', #204, .T. ) ;
#23 = AXIS2_PLACEMENT_3D ( 'NONE', #66, #207, #146 ) ;
#24 = FACE_OUTER_BOUND ( 'NONE', #34, .T. ) ;
#25 = PLANE ( 'NONE',  #9 ) ;
#26 = CARTESIAN_POINT ( 'NONE',  ( -2.670983104439338680E-30, -0.3749999999999998890, -7.649999656948880596E-16 ) ) ;
#27 = DIRECTION ( 'NONE',  ( 3.491481338843133355E-15, -1.219242935835426903E-16, 1.000000000000000000 ) ) ;
#28 = CIRCLE ( 'NONE', #77, 1.199999999999995959 ) ;
#29 = CARTESIAN_POINT ( 'NONE',  ( 1.018687894544877801E-14, -0.4431483474218602669, 2.917638090205028956 ) ) ;
#30 = DIRECTION ( 'NONE',  ( 1.000000000000000000, 0.0000000000000000000, 0.0000000000000000000 ) ) ;
#31 = CARTESIAN_POINT ( 'NONE',  ( 2.395806365932210458E-14, -1.499999999999995559, 6.861862153689862076 ) ) ;
#32 =( GEOMETRIC_REPRESENTATION_CONTEXT ( 3 ) GLOBAL_UNCERTAINTY_ASSIGNED_CONTEXT ( ( #57 ) ) GLOBAL_UNIT_ASSIGNED_CONTEXT ( ( #112, #219, #52 ) ) REPRESENTATION_CONTEXT ( 'NONE', 'WORKASPACE' ) );
#33 = SECURITY_CLASSIFICATION_LEVEL ( 'unclassified' ) ;
#34 = EDGE_LOOP ( 'NONE', ( #160 ) ) ;
#35 = PRODUCT_DEFINITION_SHAPE ( 'NONE', 'NONE',  #201 ) ;
#36 = ORIENTED_EDGE ( 'NONE', *, *, #213, .F. ) ;
#37 = EDGE_LOOP ( 'NONE', ( #36 ) ) ;
#38 = CIRCLE ( 'NONE', #116, 0.3749999999999998890 ) ;
#39 = DATE_AND_TIME ( #114, #212 ) ;
#40 = CARTESIAN_POINT ( 'NONE',  ( 8.379555213223518475E-15, -2.926183046005024172E-16, 2.399999999999999911 ) ) ;
#41 = MANIFOLD_SOLID_BREP ( 'Corps-Déplacer/Copier1[2]', #217 ) ;
#42 = AXIS2_PLACEMENT_3D ( 'NONE', #233, #46, #194 ) ;
#43 = APPROVAL_PERSON_ORGANIZATION ( #183, #235, #153 ) ;
#44 = DIRECTION ( 'NONE',  ( 0.0000000000000000000, -1.000000000000000000, 0.0000000000000000000 ) ) ;
#45 = PLANE ( 'NONE',  #231 ) ;
#46 = DIRECTION ( 'NONE',  ( -3.491481338843133355E-15, 1.224646799147353207E-16, -1.000000000000000000 ) ) ;
#47 = CLOSED_SHELL ( 'NONE', ( #101, #19, #65, #150, #176, #69 ) ) ;
#48 = DIRECTION ( 'NONE',  ( 0.0000000000000000000, 1.000000000000000000, 0.0000000000000000000 ) ) ;
#49 = APPROVAL_ROLE ( '' ) ;
#50 = VERTEX_POINT ( 'NONE', #220 ) ;
#51 = LOCAL_TIME ( 11, 35, 21.00000000000000000, #171 ) ;
#52 =( NAMED_UNIT ( * ) SI_UNIT ( $, .STERADIAN. ) SOLID_ANGLE_UNIT ( ) );
#53 = MECHANICAL_CONTEXT ( 'NONE', #111, 'mechanical' ) ;
#54 = CIRCLE ( 'NONE', #190, 1.499999999999994671 ) ;
#55 = EDGE_CURVE ( 'NONE', #71, #71, #38, .T. ) ;
#56 = PERSON_AND_ORGANIZATION ( #141, #162 ) ;
#57 = UNCERTAINTY_MEASURE_WITH_UNIT (LENGTH_MEASURE( 1.000000000000000082E-05 ), #112, 'distance_accuracy_value', 'NONE');
#58 = APPROVAL_ROLE ( '' ) ;
#59 = EDGE_LOOP ( 'NONE', ( #203 ) ) ;
#60 = EDGE_LOOP ( 'NONE', ( #173 ) ) ;
#61 = TOROIDAL_SURFACE ( 'NONE', #156, 2.375000000000000000, 2.000000000000000000 ) ;
#62 = EDGE_LOOP ( 'NONE', ( #95 ) ) ;
#63 = DIRECTION ( 'NONE',  ( -4.256963957985708889E-31, -1.000000000000000000, -1.219242935835426903E-16 ) ) ;
#64 = FACE_BOUND ( 'NONE', #62, .T. ) ;
#65 = ADVANCED_FACE ( 'NONE', ( #22 ), #3, .F. ) ;
#66 = CARTESIAN_POINT ( 'NONE',  ( -8.551680453529350800E-31, 2.999525725151307090E-32, -2.449298628175645296E-16 ) ) ;
#67 = CARTESIAN_POINT ( 'NONE',  ( 8.379555213223518475E-15, -4.336808689942017736E-16, 2.399999999999999911 ) ) ;
#68 = DIRECTION ( 'NONE',  ( 3.491481338843133355E-15, -1.219242935835426903E-16, 1.000000000000000000 ) ) ;
#69 = ADVANCED_FACE ( 'NONE', ( #127 ), #45, .F. ) ;
#70 = DIRECTION ( 'NONE',  ( 3.491481338843133355E-15, -1.219242935835426903E-16, 1.000000000000000000 ) ) ;
#71 = VERTEX_POINT ( 'NONE', #26 ) ;
#72 = DATE_AND_TIME ( #238, #126 ) ;
#73 = PRODUCT_RELATED_PRODUCT_CATEGORY ( 'detail', '', ( #15 ) ) ;
#74 = PERSON_AND_ORGANIZATION_ROLE ( 'design_owner' ) ;
#75 = EDGE_CURVE ( 'NONE', #214, #214, #242, .T. ) ;
#76 = DATE_AND_TIME ( #224, #196 ) ;
#77 = AXIS2_PLACEMENT_3D ( 'NONE', #115, #230, #103 ) ;
#78 = EDGE_LOOP ( 'NONE', ( #79 ) ) ;
#79 = ORIENTED_EDGE ( 'NONE', *, *, #89, .F. ) ;
#80 = CC_DESIGN_PERSON_AND_ORGANIZATION_ASSIGNMENT ( #181, #74, ( #15 ) ) ;
#81 = ORIENTED_EDGE ( 'NONE', *, *, #213, .T. ) ;
#82 = PLANE ( 'NONE',  #23 ) ;
#83 = SECURITY_CLASSIFICATION ( '', '', #33 ) ;
#84 = DIRECTION ( 'NONE',  ( 3.491481338843133355E-15, -1.219242935835426903E-16, 1.000000000000000000 ) ) ;
#85 = FACE_OUTER_BOUND ( 'NONE', #227, .T. ) ;
#86 = FACE_OUTER_BOUND ( 'NONE', #60, .T. ) ;
#87 = APPLICATION_PROTOCOL_DEFINITION ( 'international standard', 'config_control_design', 1994, #99 ) ;
#88 = PERSON_AND_ORGANIZATION ( #141, #162 ) ;
#89 = EDGE_CURVE ( 'NONE', #152, #152, #54, .T. ) ;
#90 = CARTESIAN_POINT ( 'NONE',  ( 8.379555213223518475E-15, -0.3750000000000000000, 2.399999999999999911 ) ) ;
#91 = CARTESIAN_POINT ( 'NONE',  ( 0.0000000000000000000, 0.0000000000000000000, 0.0000000000000000000 ) ) ;
#92 = CIRCLE ( 'NONE', #129, 0.4431483474218598784 ) ;
#93 = CC_DESIGN_DATE_AND_TIME_ASSIGNMENT ( #72, #182, ( #201 ) ) ;
#94 = CARTESIAN_POINT ( 'NONE',  ( 1.326762908760390423E-13, 1.199999999999991518, 38.00000000000000000 ) ) ;
#95 = ORIENTED_EDGE ( 'NONE', *, *, #1, .T. ) ;
#96 = AXIS2_PLACEMENT_3D ( 'NONE', #236, #68, #63 ) ;
#97 = EDGE_LOOP ( 'NONE', ( #225 ) ) ;
#98 = PERSON_AND_ORGANIZATION ( #141, #162 ) ;
#99 = APPLICATION_CONTEXT ( 'configuration controlled 3d designs of mechanical parts and assemblies' ) ;
#100 = AXIS2_PLACEMENT_3D ( 'NONE', #104, #121, #177 ) ;
#101 = ADVANCED_FACE ( 'NONE', ( #179, #102 ), #122, .T. ) ;
#102 = FACE_OUTER_BOUND ( 'NONE', #78, .T. ) ;
#103 = DIRECTION ( 'NONE',  ( 0.0000000000000000000, 1.000000000000000000, 0.0000000000000000000 ) ) ;
#104 = CARTESIAN_POINT ( 'NONE',  ( 1.326762908760390423E-13, 8.998558695971047118E-33, 38.00000000000000000 ) ) ;
#105 = CC_DESIGN_APPROVAL ( #147, ( #83 ) ) ;
#106 = FACE_OUTER_BOUND ( 'NONE', #37, .T. ) ;
#107 = CARTESIAN_POINT ( 'NONE',  ( 8.379555213223520053E-15, 6.938893903907249085E-16, 2.400000000000000355 ) ) ;
#108 = CARTESIAN_POINT ( 'NONE',  ( 8.379555213223518475E-15, -0.3750000000000000000, 2.399999999999999911 ) ) ;
#109 = CC_DESIGN_APPROVAL ( #235, ( #201 ) ) ;
#110 = APPROVAL ( #239, 'UNSPECIFIED' ) ;
#111 = APPLICATION_CONTEXT ( 'configuration controlled 3d designs of mechanical parts and assemblies' ) ;
#112 =( LENGTH_UNIT ( ) NAMED_UNIT ( * ) SI_UNIT ( .MILLI., .METRE. ) );
#113 = CALENDAR_DATE ( 2021, 1, 11 ) ;
#114 = CALENDAR_DATE ( 2021, 1, 11 ) ;
#115 = CARTESIAN_POINT ( 'NONE',  ( 1.326762908760390423E-13, -4.653657836759941941E-15, 38.00000000000000000 ) ) ;
#116 = AXIS2_PLACEMENT_3D ( 'NONE', #5, #209, #191 ) ;
#117 = CC_DESIGN_PERSON_AND_ORGANIZATION_ASSIGNMENT ( #159, #134, ( #185 ) ) ;
#118 = LOCAL_TIME ( 11, 35, 21.00000000000000000, #188 ) ;
#119 = DATE_TIME_ROLE ( 'classification_date' ) ;
#120 = EDGE_LOOP ( 'NONE', ( #81 ) ) ;
#121 = DIRECTION ( 'NONE',  ( -3.491481338843133355E-15, 1.224646799147353207E-16, -1.000000000000000000 ) ) ;
#122 = CYLINDRICAL_SURFACE ( 'NONE', #222, 1.499999999999994671 ) ;
#123 = FACE_OUTER_BOUND ( 'NONE', #189, .T. ) ;
#124 = DIRECTION ( 'NONE',  ( 3.491481338843133355E-15, -1.224646799147353207E-16, 1.000000000000000000 ) ) ;
#125 = CC_DESIGN_PERSON_AND_ORGANIZATION_ASSIGNMENT ( #56, #240, ( #185 ) ) ;
#126 = LOCAL_TIME ( 11, 35, 21.00000000000000000, #237 ) ;
#127 = FACE_OUTER_BOUND ( 'NONE', #135, .T. ) ;
#128 = COORDINATED_UNIVERSAL_TIME_OFFSET ( 1, 0, .AHEAD. ) ;
#129 = AXIS2_PLACEMENT_3D ( 'NONE', #143, #27, #151 ) ;
#130 = VERTEX_POINT ( 'NONE', #90 ) ;
#131 = CARTESIAN_POINT ( 'NONE',  ( 8.379555213223518475E-15, -2.926183046005024172E-16, 2.399999999999999911 ) ) ;
#132 = CC_DESIGN_DATE_AND_TIME_ASSIGNMENT ( #76, #119, ( #83 ) ) ;
#133 = AXIS2_PLACEMENT_3D ( 'NONE', #175, #144, #48 ) ;
#134 = PERSON_AND_ORGANIZATION_ROLE ( 'creator' ) ;
#135 = EDGE_LOOP ( 'NONE', ( #18 ) ) ;
#136 = PERSON_AND_ORGANIZATION ( #141, #162 ) ;
#137 = EDGE_LOOP ( 'NONE', ( #158 ) ) ;
#138 = APPROVAL_STATUS ( 'not_yet_approved' ) ;
#139 = CONICAL_SURFACE ( 'NONE', #13, 2.499999999999995559, 0.2617993877991429130 ) ;
#140 = ORIENTED_EDGE ( 'NONE', *, *, #184, .T. ) ;
#141 = PERSON ( 'UNSPECIFIED', 'UNSPECIFIED', 'UNSPECIFIED', ('UNSPECIFIED'), ('UNSPECIFIED'), ('UNSPECIFIED') ) ;
#142 = DATE_AND_TIME ( #226, #118 ) ;
#143 = CARTESIAN_POINT ( 'NONE',  ( 1.018687894544877801E-14, -3.557309630806847409E-16, 2.917638090205028956 ) ) ;
#144 = DIRECTION ( 'NONE',  ( -3.491481338843133355E-15, 1.224646799147353207E-16, -1.000000000000000000 ) ) ;
#145 = CIRCLE ( 'NONE', #42, 1.499999999999996669 ) ;
#146 = DIRECTION ( 'NONE',  ( -4.275831445896958607E-31, -1.000000000000000000, -1.224646799147353207E-16 ) ) ;
#147 = APPROVAL ( #138, 'UNSPECIFIED' ) ;
#148 = DIRECTION ( 'NONE',  ( 3.491481338843133355E-15, -1.219242935835426903E-16, 1.000000000000000000 ) ) ;
#149 = DIRECTION ( 'NONE',  ( 0.0000000000000000000, -1.000000000000000000, 0.0000000000000000000 ) ) ;
#150 = ADVANCED_FACE ( 'NONE', ( #192, #6 ), #139, .T. ) ;
#151 = DIRECTION ( 'NONE',  ( 0.0000000000000000000, -1.000000000000000000, 0.0000000000000000000 ) ) ;
#152 = VERTEX_POINT ( 'NONE', #31 ) ;
#153 = APPROVAL_ROLE ( '' ) ;
#154 = DIRECTION ( 'NONE',  ( 0.0000000000000000000, -1.000000000000000000, 0.0000000000000000000 ) ) ;
#155 = ADVANCED_FACE ( 'NONE', ( #232 ), #82, .F. ) ;
#156 = AXIS2_PLACEMENT_3D ( 'NONE', #67, #148, #210 ) ;
#157 = PERSON_AND_ORGANIZATION_ROLE ( 'classification_officer' ) ;
#158 = ORIENTED_EDGE ( 'NONE', *, *, #89, .T. ) ;
#159 = PERSON_AND_ORGANIZATION ( #141, #162 ) ;
#160 = ORIENTED_EDGE ( 'NONE', *, *, #55, .T. ) ;
#161 = ADVANCED_FACE ( 'NONE', ( #86 ), #25, .T. ) ;
#162 = ORGANIZATION ( 'UNSPECIFIED', 'UNSPECIFIED', '' ) ;
#163 = DIRECTION ( 'NONE',  ( -4.275831445896958607E-31, -1.000000000000000000, -1.224646799147353207E-16 ) ) ;
#164 = DIRECTION ( 'NONE',  ( 0.0000000000000000000, -1.000000000000000000, 0.0000000000000000000 ) ) ;
#165 = DIRECTION ( 'NONE',  ( 4.275831445896958607E-31, 1.000000000000000000, 1.224646799147352961E-16 ) ) ;
#166 = CYLINDRICAL_SURFACE ( 'NONE', #96, 0.3749999999999997780 ) ;
#167 = FACE_OUTER_BOUND ( 'NONE', #59, .T. ) ;
#168 = APPROVAL_PERSON_ORGANIZATION ( #12, #110, #49 ) ;
#169 = APPROVAL_STATUS ( 'not_yet_approved' ) ;
#170 = PERSON_AND_ORGANIZATION_ROLE ( 'creator' ) ;
#171 = COORDINATED_UNIVERSAL_TIME_OFFSET ( 1, 0, .AHEAD. ) ;
#172 = COORDINATED_UNIVERSAL_TIME_OFFSET ( 1, 0, .AHEAD. ) ;
#173 = ORIENTED_EDGE ( 'NONE', *, *, #75, .T. ) ;
#174 = DIRECTION ( 'NONE',  ( 3.491481338843133355E-15, -1.219242935835426903E-16, 1.000000000000000000 ) ) ;
#175 = CARTESIAN_POINT ( 'NONE',  ( 1.326762908760390423E-13, -4.653657836759941941E-15, 38.00000000000000000 ) ) ;
#176 = ADVANCED_FACE ( 'NONE', ( #167, #106 ), #61, .F. ) ;
#177 = DIRECTION ( 'NONE',  ( 4.275831445896958607E-31, 1.000000000000000000, 1.224646799147353207E-16 ) ) ;
#178 = AXIS2_PLACEMENT_3D ( 'NONE', #40, #84, #164 ) ;
#179 = FACE_OUTER_BOUND ( 'NONE', #186, .T. ) ;
#180 = DATE_AND_TIME ( #113, #51 ) ;
#181 = PERSON_AND_ORGANIZATION ( #141, #162 ) ;
#182 = DATE_TIME_ROLE ( 'creation_date' ) ;
#183 = PERSON_AND_ORGANIZATION ( #141, #162 ) ;
#184 = EDGE_CURVE ( 'NONE', #50, #50, #145, .T. ) ;
#185 = PRODUCT_DEFINITION_FORMATION_WITH_SPECIFIED_SOURCE ( 'ANY', '', #15, .NOT_KNOWN. ) ;
#186 = EDGE_LOOP ( 'NONE', ( #140 ) ) ;
#187 = ADVANCED_FACE ( 'NONE', ( #24, #85 ), #166, .T. ) ;
#188 = COORDINATED_UNIVERSAL_TIME_OFFSET ( 1, 0, .AHEAD. ) ;
#189 = EDGE_LOOP ( 'NONE', ( #229 ) ) ;
#190 = AXIS2_PLACEMENT_3D ( 'NONE', #208, #20, #44 ) ;
#191 = DIRECTION ( 'NONE',  ( -4.256963957985704510E-31, -1.000000000000000000, -1.219242935835427149E-16 ) ) ;
#192 = FACE_BOUND ( 'NONE', #120, .T. ) ;
#193 = DIRECTION ( 'NONE',  ( 3.491481338843133355E-15, -1.224646799147353207E-16, 1.000000000000000000 ) ) ;
#194 = DIRECTION ( 'NONE',  ( 0.0000000000000000000, 1.000000000000000000, 0.0000000000000000000 ) ) ;
#195 = CONICAL_SURFACE ( 'NONE', #133, 1.199999999999995959, 0.7853981633974468357 ) ;
#196 = LOCAL_TIME ( 11, 35, 21.00000000000000000, #172 ) ;
#197 = CARTESIAN_POINT ( 'NONE',  ( 0.0000000000000000000, 0.0000000000000000000, 0.0000000000000000000 ) ) ;
#198 = APPLICATION_PROTOCOL_DEFINITION ( 'international standard', 'config_control_design', 1994, #111 ) ;
#199 = MANIFOLD_SOLID_BREP ( 'Corps-Déplacer/Copier1[1]', #47 ) ;
#200 = AXIS2_PLACEMENT_3D ( 'NONE', #131, #70, #154 ) ;
#201 = PRODUCT_DEFINITION ( 'UNKNOWN', '', #185, #202 ) ;
#202 = DESIGN_CONTEXT ( 'detailed design', #99, 'design' ) ;
#203 = ORIENTED_EDGE ( 'NONE', *, *, #215, .T. ) ;
#204 = EDGE_LOOP ( 'NONE', ( #223 ) ) ;
#205 = SHAPE_DEFINITION_REPRESENTATION ( #35, #234 ) ;
#206 = ORIENTED_EDGE ( 'NONE', *, *, #75, .F. ) ;
#207 = DIRECTION ( 'NONE',  ( 3.491481338843133355E-15, -1.224646799147353207E-16, 1.000000000000000000 ) ) ;
#208 = CARTESIAN_POINT ( 'NONE',  ( 2.395806365932210458E-14, -8.366276957562831878E-16, 6.861862153689862076 ) ) ;
#209 = DIRECTION ( 'NONE',  ( 3.491481338843133355E-15, -1.219242935835426903E-16, 1.000000000000000000 ) ) ;
#210 = DIRECTION ( 'NONE',  ( -4.317661773764587743E-31, -1.000000000000000000, -1.219242935835426903E-16 ) ) ;
#211 = DIRECTION ( 'NONE',  ( -4.275831445896958607E-31, -1.000000000000000000, -1.224646799147353207E-16 ) ) ;
#212 = LOCAL_TIME ( 11, 35, 21.00000000000000000, #128 ) ;
#213 = EDGE_CURVE ( 'NONE', #14, #14, #92, .T. ) ;
#214 = VERTEX_POINT ( 'NONE', #108 ) ;
#215 = EDGE_CURVE ( 'NONE', #130, #130, #17, .T. ) ;
#216 = APPROVAL_DATE_TIME ( #180, #235 ) ;
#217 = CLOSED_SHELL ( 'NONE', ( #161, #187, #155 ) ) ;
#218 = APPROVAL_PERSON_ORGANIZATION ( #98, #147, #58 ) ;
#219 =( NAMED_UNIT ( * ) PLANE_ANGLE_UNIT ( ) SI_UNIT ( $, .RADIAN. ) );
#220 = CARTESIAN_POINT ( 'NONE',  ( 1.316288464743861212E-13, 1.499999999999992228, 37.69999999999999574 ) ) ;
#221 = CC_DESIGN_PERSON_AND_ORGANIZATION_ASSIGNMENT ( #136, #157, ( #83 ) ) ;
#222 = AXIS2_PLACEMENT_3D ( 'NONE', #197, #2, #165 ) ;
#223 = ORIENTED_EDGE ( 'NONE', *, *, #1, .F. ) ;
#224 = CALENDAR_DATE ( 2021, 1, 11 ) ;
#225 = ORIENTED_EDGE ( 'NONE', *, *, #55, .F. ) ;
#226 = CALENDAR_DATE ( 2021, 1, 11 ) ;
#227 = EDGE_LOOP ( 'NONE', ( #206 ) ) ;
#228 = AXIS2_PLACEMENT_3D ( 'NONE', #91, #11, #30 ) ;
#229 = ORIENTED_EDGE ( 'NONE', *, *, #184, .F. ) ;
#230 = DIRECTION ( 'NONE',  ( -3.491481338843133355E-15, 1.224646799147353207E-16, -1.000000000000000000 ) ) ;
#231 = AXIS2_PLACEMENT_3D ( 'NONE', #7, #124, #163 ) ;
#232 = FACE_OUTER_BOUND ( 'NONE', #97, .T. ) ;
#233 = CARTESIAN_POINT ( 'NONE',  ( 1.316288464743861212E-13, -4.616918432785521081E-15, 37.69999999999999574 ) ) ;
#234 = ADVANCED_BREP_SHAPE_REPRESENTATION ( '48090', ( #199, #41, #228 ), #32 ) ;
#235 = APPROVAL ( #169, 'UNSPECIFIED' ) ;
#236 = CARTESIAN_POINT ( 'NONE',  ( 0.0000000000000000000, 0.0000000000000000000, 0.0000000000000000000 ) ) ;
#237 = COORDINATED_UNIVERSAL_TIME_OFFSET ( 1, 0, .AHEAD. ) ;
#238 = CALENDAR_DATE ( 2021, 1, 11 ) ;
#239 = APPROVAL_STATUS ( 'not_yet_approved' ) ;
#240 = PERSON_AND_ORGANIZATION_ROLE ( 'design_supplier' ) ;
#241 = APPROVAL_DATE_TIME ( #39, #110 ) ;
#242 = CIRCLE ( 'NONE', #178, 0.3749999999999997224 ) ;
#243 = CC_DESIGN_APPROVAL ( #110, ( #185 ) ) ;
ENDSEC;
END-ISO-10303-21;
