ISO-10303-21;
HEADER;
FILE_DESCRIPTION (( 'STEP AP203' ),
    '1' );
FILE_NAME ('48089.step',
    '2021-11-01T10:35:21',
    ( '' ),
    ( '' ),
    'SwSTEP 2.0',
    'SolidWorks 2019',
    '' );
FILE_SCHEMA (( 'CONFIG_CONTROL_DESIGN' ));
ENDSEC;

DATA;
#1 = EDGE_LOOP ( 'NONE', ( #117 ) ) ;
#2 = ADVANCED_FACE ( 'NONE', ( #81 ), #228, .F. ) ;
#3 = ORIENTED_EDGE ( 'NONE', *, *, #94, .F. ) ;
#4 = PLANE ( 'NONE',  #67 ) ;
#5 = AXIS2_PLACEMENT_3D ( 'NONE', #49, #66, #79 ) ;
#6 = LOCAL_TIME ( 11, 35, 21.00000000000000000, #102 ) ;
#7 = LOCAL_TIME ( 11, 35, 21.00000000000000000, #217 ) ;
#8 = APPLICATION_CONTEXT ( 'configuration controlled 3d designs of mechanical parts and assemblies' ) ;
#9 = DIRECTION ( 'NONE',  ( -4.275831445896958607E-31, -1.000000000000000000, -1.224646799147353207E-16 ) ) ;
#10 = CARTESIAN_POINT ( 'NONE',  ( 5.237222008264698455E-15, 1.124819836996387185E-32, 1.499999999999999556 ) ) ;
#11 = FACE_OUTER_BOUND ( 'NONE', #80, .T. ) ;
#12 = PERSON_AND_ORGANIZATION ( #173, #88 ) ;
#13 = DIRECTION ( 'NONE',  ( 0.0000000000000000000, 1.000000000000000000, 0.0000000000000000000 ) ) ;
#14 = CIRCLE ( 'NONE', #28, 0.2500000000000003886 ) ;
#15 = FACE_OUTER_BOUND ( 'NONE', #116, .T. ) ;
#16 = EDGE_CURVE ( 'NONE', #178, #178, #31, .T. ) ;
#17 = VERTEX_POINT ( 'NONE', #125 ) ;
#18 = ORIENTED_EDGE ( 'NONE', *, *, #240, .T. ) ;
#19 = CARTESIAN_POINT ( 'NONE',  ( 1.326762908760390423E-13, 1.199999999999991518, 38.00000000000000000 ) ) ;
#20 = CIRCLE ( 'NONE', #241, 0.3181483474218601004 ) ;
#21 = PERSON_AND_ORGANIZATION_ROLE ( 'design_supplier' ) ;
#22 = ORIENTED_EDGE ( 'NONE', *, *, #89, .T. ) ;
#23 = SECURITY_CLASSIFICATION_LEVEL ( 'unclassified' ) ;
#24 = ORIENTED_EDGE ( 'NONE', *, *, #89, .F. ) ;
#25 = APPROVAL_ROLE ( '' ) ;
#26 = EDGE_LOOP ( 'NONE', ( #45 ) ) ;
#27 = PRODUCT ( '48089', '48089', '', ( #40 ) ) ;
#28 = AXIS2_PLACEMENT_3D ( 'NONE', #124, #193, #215 ) ;
#29 = CC_DESIGN_PERSON_AND_ORGANIZATION_ASSIGNMENT ( #214, #53, ( #143 ) ) ;
#30 = FACE_OUTER_BOUND ( 'NONE', #243, .T. ) ;
#31 = CIRCLE ( 'NONE', #54, 0.2500000000000003886 ) ;
#32 = CYLINDRICAL_SURFACE ( 'NONE', #222, 1.499999999999994671 ) ;
#33 = DIRECTION ( 'NONE',  ( -3.491481338843133355E-15, 1.224646799147353207E-16, -1.000000000000000000 ) ) ;
#34 = CALENDAR_DATE ( 2021, 1, 11 ) ;
#35 = FACE_OUTER_BOUND ( 'NONE', #1, .T. ) ;
#36 = DIRECTION ( 'NONE',  ( 3.491481338843133355E-15, -1.219242935835426903E-16, 1.000000000000000000 ) ) ;
#37 = CYLINDRICAL_SURFACE ( 'NONE', #50, 0.2500000000000002220 ) ;
#38 = AXIS2_PLACEMENT_3D ( 'NONE', #198, #33, #13 ) ;
#39 = COORDINATED_UNIVERSAL_TIME_OFFSET ( 1, 0, .AHEAD. ) ;
#40 = MECHANICAL_CONTEXT ( 'NONE', #8, 'mechanical' ) ;
#41 = ORIENTED_EDGE ( 'NONE', *, *, #152, .T. ) ;
#42 = DESIGN_CONTEXT ( 'detailed design', #210, 'design' ) ;
#43 = TOROIDAL_SURFACE ( 'NONE', #85, 2.250000000000000444, 2.000000000000000000 ) ;
#44 = COORDINATED_UNIVERSAL_TIME_OFFSET ( 1, 0, .AHEAD. ) ;
#45 = ORIENTED_EDGE ( 'NONE', *, *, #115, .F. ) ;
#46 = PERSON_AND_ORGANIZATION ( #173, #88 ) ;
#47 = EDGE_LOOP ( 'NONE', ( #149 ) ) ;
#48 = ADVANCED_FACE ( 'NONE', ( #156 ), #4, .F. ) ;
#49 = CARTESIAN_POINT ( 'NONE',  ( -8.551680453529350800E-31, 2.999525725151307090E-32, -2.449298628175645296E-16 ) ) ;
#50 = AXIS2_PLACEMENT_3D ( 'NONE', #130, #238, #137 ) ;
#51 = DIRECTION ( 'NONE',  ( -3.491481338843133355E-15, 1.224646799147353207E-16, -1.000000000000000000 ) ) ;
#52 = DIRECTION ( 'NONE',  ( 3.491481338843133355E-15, -1.219242935835426903E-16, 1.000000000000000000 ) ) ;
#53 = PERSON_AND_ORGANIZATION_ROLE ( 'creator' ) ;
#54 = AXIS2_PLACEMENT_3D ( 'NONE', #106, #36, #92 ) ;
#55 = DIRECTION ( 'NONE',  ( 3.491481338843133355E-15, -1.219242935835426903E-16, 1.000000000000000000 ) ) ;
#56 = APPROVAL_PERSON_ORGANIZATION ( #46, #159, #25 ) ;
#57 = CARTESIAN_POINT ( 'NONE',  ( 3.547491442338499703E-14, -1.238801947153174126E-15, 10.16041931220495798 ) ) ;
#58 = PERSON_AND_ORGANIZATION_ROLE ( 'creator' ) ;
#59 = EDGE_LOOP ( 'NONE', ( #207 ) ) ;
#60 = AXIS2_PLACEMENT_3D ( 'NONE', #160, #144, #110 ) ;
#61 = CC_DESIGN_APPROVAL ( #190, ( #143 ) ) ;
#62 = EDGE_LOOP ( 'NONE', ( #84 ) ) ;
#63 = EDGE_LOOP ( 'NONE', ( #41 ) ) ;
#64 = DIRECTION ( 'NONE',  ( -3.491481338843133355E-15, 1.224646799147353207E-16, -1.000000000000000000 ) ) ;
#65 = DIRECTION ( 'NONE',  ( 4.275831445896958607E-31, 1.000000000000000000, 1.224646799147353207E-16 ) ) ;
#66 = DIRECTION ( 'NONE',  ( 3.491481338843133355E-15, -1.224646799147353207E-16, 1.000000000000000000 ) ) ;
#67 = AXIS2_PLACEMENT_3D ( 'NONE', #82, #64, #65 ) ;
#68 = SECURITY_CLASSIFICATION ( '', '', #23 ) ;
#69 = DIRECTION ( 'NONE',  ( 0.0000000000000000000, -1.000000000000000000, 0.0000000000000000000 ) ) ;
#70 = DATE_AND_TIME ( #233, #216 ) ;
#71 = DIRECTION ( 'NONE',  ( 3.491481338843133355E-15, -1.219242935835426903E-16, 1.000000000000000000 ) ) ;
#72 = APPLICATION_PROTOCOL_DEFINITION ( 'international standard', 'config_control_design', 1994, #8 ) ;
#73 = APPROVAL_PERSON_ORGANIZATION ( #75, #190, #239 ) ;
#74 = DIRECTION ( 'NONE',  ( 3.491481338843133355E-15, -1.224646799147353207E-16, 1.000000000000000000 ) ) ;
#75 = PERSON_AND_ORGANIZATION ( #173, #88 ) ;
#76 = CC_DESIGN_DATE_AND_TIME_ASSIGNMENT ( #162, #236, ( #90 ) ) ;
#77 = DIRECTION ( 'NONE',  ( -4.256963957985712392E-31, -1.000000000000000000, -1.219242935835425424E-16 ) ) ;
#78 =( LENGTH_UNIT ( ) NAMED_UNIT ( * ) SI_UNIT ( .MILLI., .METRE. ) );
#79 = DIRECTION ( 'NONE',  ( -4.275831445896958607E-31, -1.000000000000000000, -1.224646799147353207E-16 ) ) ;
#80 = EDGE_LOOP ( 'NONE', ( #18 ) ) ;
#81 = FACE_OUTER_BOUND ( 'NONE', #26, .T. ) ;
#82 = CARTESIAN_POINT ( 'NONE',  ( 1.326762908760390423E-13, 8.998558695971047118E-33, 38.00000000000000000 ) ) ;
#83 = PERSON_AND_ORGANIZATION ( #173, #88 ) ;
#84 = ORIENTED_EDGE ( 'NONE', *, *, #240, .F. ) ;
#85 = AXIS2_PLACEMENT_3D ( 'NONE', #177, #52, #175 ) ;
#86 = ADVANCED_FACE ( 'NONE', ( #172, #158 ), #96, .T. ) ;
#87 = PRODUCT_RELATED_PRODUCT_CATEGORY ( 'detail', '', ( #27 ) ) ;
#88 = ORGANIZATION ( 'UNSPECIFIED', 'UNSPECIFIED', '' ) ;
#89 = EDGE_CURVE ( 'NONE', #237, #237, #201, .T. ) ;
#90 = PRODUCT_DEFINITION ( 'UNKNOWN', '', #143, #42 ) ;
#91 = FACE_OUTER_BOUND ( 'NONE', #226, .T. ) ;
#92 = DIRECTION ( 'NONE',  ( 0.0000000000000000000, -1.000000000000000000, 0.0000000000000000000 ) ) ;
#93 = DIRECTION ( 'NONE',  ( -3.491481338843133355E-15, 1.224646799147353207E-16, -1.000000000000000000 ) ) ;
#94 = EDGE_CURVE ( 'NONE', #145, #145, #20, .T. ) ;
#95 = CARTESIAN_POINT ( 'NONE',  ( 7.044545740489949314E-15, -0.3181483474218603780, 2.017638090205026380 ) ) ;
#96 = CONICAL_SURFACE ( 'NONE', #136, 1.199999999999995959, 0.7853981633974468357 ) ;
#97 = FACE_OUTER_BOUND ( 'NONE', #47, .T. ) ;
#98 = PERSON_AND_ORGANIZATION ( #173, #88 ) ;
#99 = PRODUCT_DEFINITION_SHAPE ( 'NONE', 'NONE',  #90 ) ;
#100 = PLANE ( 'NONE',  #108 ) ;
#101 = APPROVAL_DATE_TIME ( #113, #190 ) ;
#102 = COORDINATED_UNIVERSAL_TIME_OFFSET ( 1, 0, .AHEAD. ) ;
#103 = CC_DESIGN_SECURITY_CLASSIFICATION ( #68, ( #143 ) ) ;
#104 = SHAPE_DEFINITION_REPRESENTATION ( #99, #133 ) ;
#105 = PERSON_AND_ORGANIZATION ( #173, #88 ) ;
#106 = CARTESIAN_POINT ( 'NONE',  ( 5.237222008264698455E-15, -1.828864403753139861E-16, 1.499999999999999556 ) ) ;
#107 = AXIS2_PLACEMENT_3D ( 'NONE', #200, #71, #77 ) ;
#108 = AXIS2_PLACEMENT_3D ( 'NONE', #10, #74, #212 ) ;
#109 = CARTESIAN_POINT ( 'NONE',  ( 0.0000000000000000000, 0.0000000000000000000, 0.0000000000000000000 ) ) ;
#110 = DIRECTION ( 'NONE',  ( 0.0000000000000000000, 1.000000000000000000, 0.0000000000000000000 ) ) ;
#111 = DIRECTION ( 'NONE',  ( -3.491481338843133355E-15, 1.219242935835426903E-16, -1.000000000000000000 ) ) ;
#112 = MANIFOLD_SOLID_BREP ( 'Corps-Déplacer/Copier1[1]', #161 ) ;
#113 = DATE_AND_TIME ( #182, #206 ) ;
#114 = ORIENTED_EDGE ( 'NONE', *, *, #16, .F. ) ;
#115 = EDGE_CURVE ( 'NONE', #142, #142, #168, .T. ) ;
#116 = EDGE_LOOP ( 'NONE', ( #114 ) ) ;
#117 = ORIENTED_EDGE ( 'NONE', *, *, #135, .T. ) ;
#118 = CC_DESIGN_APPROVAL ( #148, ( #90 ) ) ;
#119 = DATE_AND_TIME ( #187, #163 ) ;
#120 = ADVANCED_FACE ( 'NONE', ( #174 ), #128, .T. ) ;
#121 = MANIFOLD_SOLID_BREP ( 'Corps-Déplacer/Copier1[2]', #179 ) ;
#122 = AXIS2_PLACEMENT_3D ( 'NONE', #57, #55, #140 ) ;
#123 = AXIS2_PLACEMENT_3D ( 'NONE', #146, #111, #138 ) ;
#124 = CARTESIAN_POINT ( 'NONE',  ( 5.237222008264698455E-15, -1.828864403753139861E-16, 1.499999999999999556 ) ) ;
#125 = CARTESIAN_POINT ( 'NONE',  ( 5.237222008264698455E-15, -0.2500000000000005551, 1.499999999999999556 ) ) ;
#126 = APPROVAL_PERSON_ORGANIZATION ( #98, #148, #197 ) ;
#127 = ADVANCED_FACE ( 'NONE', ( #155, #91 ), #37, .T. ) ;
#128 = PLANE ( 'NONE',  #231 ) ;
#129 = APPLICATION_PROTOCOL_DEFINITION ( 'international standard', 'config_control_design', 1994, #210 ) ;
#130 = CARTESIAN_POINT ( 'NONE',  ( 0.0000000000000000000, 0.0000000000000000000, 0.0000000000000000000 ) ) ;
#131 = VERTEX_POINT ( 'NONE', #199 ) ;
#132 = ORIENTED_EDGE ( 'NONE', *, *, #115, .T. ) ;
#133 = ADVANCED_BREP_SHAPE_REPRESENTATION ( '48089', ( #112, #121, #230 ), #194 ) ;
#134 = CIRCLE ( 'NONE', #60, 1.499999999999996669 ) ;
#135 = EDGE_CURVE ( 'NONE', #131, #131, #189, .T. ) ;
#136 = AXIS2_PLACEMENT_3D ( 'NONE', #235, #51, #232 ) ;
#137 = DIRECTION ( 'NONE',  ( -4.256963957985708889E-31, -1.000000000000000000, -1.219242935835427149E-16 ) ) ;
#138 = DIRECTION ( 'NONE',  ( 0.0000000000000000000, -1.000000000000000000, 0.0000000000000000000 ) ) ;
#139 = PERSON_AND_ORGANIZATION ( #173, #88 ) ;
#140 = DIRECTION ( 'NONE',  ( 0.0000000000000000000, -1.000000000000000000, 0.0000000000000000000 ) ) ;
#141 = CC_DESIGN_PERSON_AND_ORGANIZATION_ASSIGNMENT ( #83, #21, ( #143 ) ) ;
#142 = VERTEX_POINT ( 'NONE', #219 ) ;
#143 = PRODUCT_DEFINITION_FORMATION_WITH_SPECIFIED_SOURCE ( 'ANY', '', #27, .NOT_KNOWN. ) ;
#144 = DIRECTION ( 'NONE',  ( -3.491481338843133355E-15, 1.224646799147353207E-16, -1.000000000000000000 ) ) ;
#145 = VERTEX_POINT ( 'NONE', #95 ) ;
#146 = CARTESIAN_POINT ( 'NONE',  ( 2.244452867314346292E-14, -7.837742888224364925E-16, 6.428368504635979974 ) ) ;
#147 =( NAMED_UNIT ( * ) PLANE_ANGLE_UNIT ( ) SI_UNIT ( $, .RADIAN. ) );
#148 = APPROVAL ( #157, 'UNSPECIFIED' ) ;
#149 = ORIENTED_EDGE ( 'NONE', *, *, #16, .T. ) ;
#150 = APPROVAL_STATUS ( 'not_yet_approved' ) ;
#151 = EDGE_LOOP ( 'NONE', ( #3 ) ) ;
#152 = EDGE_CURVE ( 'NONE', #17, #17, #14, .T. ) ;
#153 = CC_DESIGN_PERSON_AND_ORGANIZATION_ASSIGNMENT ( #12, #183, ( #27 ) ) ;
#154 = CONICAL_SURFACE ( 'NONE', #122, 2.499999999999995559, 0.2617993877991429130 ) ;
#155 = FACE_OUTER_BOUND ( 'NONE', #184, .T. ) ;
#156 = FACE_OUTER_BOUND ( 'NONE', #185, .T. ) ;
#157 = APPROVAL_STATUS ( 'not_yet_approved' ) ;
#158 = FACE_BOUND ( 'NONE', #229, .T. ) ;
#159 = APPROVAL ( #150, 'UNSPECIFIED' ) ;
#160 = CARTESIAN_POINT ( 'NONE',  ( 1.316288464743861212E-13, -4.616918432785521081E-15, 37.69999999999999574 ) ) ;
#161 = CLOSED_SHELL ( 'NONE', ( #192, #86, #48, #211, #171, #188 ) ) ;
#162 = DATE_AND_TIME ( #34, #7 ) ;
#163 = LOCAL_TIME ( 11, 35, 21.00000000000000000, #44 ) ;
#164 = CARTESIAN_POINT ( 'NONE',  ( 5.237222008264698455E-15, -0.2500000000000005551, 1.499999999999999556 ) ) ;
#165 = COORDINATED_UNIVERSAL_TIME_OFFSET ( 1, 0, .AHEAD. ) ;
#166 = DIRECTION ( 'NONE',  ( 3.491481338843133355E-15, -1.219242935835426903E-16, 1.000000000000000000 ) ) ;
#167 = CARTESIAN_POINT ( 'NONE',  ( 0.0000000000000000000, 0.0000000000000000000, 0.0000000000000000000 ) ) ;
#168 = CIRCLE ( 'NONE', #107, 0.2500000000000000000 ) ;
#169 = ORIENTED_EDGE ( 'NONE', *, *, #135, .F. ) ;
#170 = CC_DESIGN_APPROVAL ( #159, ( #68 ) ) ;
#171 = ADVANCED_FACE ( 'NONE', ( #97, #181 ), #43, .F. ) ;
#172 = FACE_OUTER_BOUND ( 'NONE', #62, .T. ) ;
#173 = PERSON ( 'UNSPECIFIED', 'UNSPECIFIED', 'UNSPECIFIED', ('UNSPECIFIED'), ('UNSPECIFIED'), ('UNSPECIFIED') ) ;
#174 = FACE_OUTER_BOUND ( 'NONE', #63, .T. ) ;
#175 = DIRECTION ( 'NONE',  ( -4.319447003640437456E-31, -1.000000000000000000, -1.219242935835426903E-16 ) ) ;
#176 = VERTEX_POINT ( 'NONE', #223 ) ;
#177 = CARTESIAN_POINT ( 'NONE',  ( 5.237222008264697666E-15, 0.0000000000000000000, 1.499999999999999334 ) ) ;
#178 = VERTEX_POINT ( 'NONE', #164 ) ;
#179 = CLOSED_SHELL ( 'NONE', ( #120, #127, #2 ) ) ;
#180 = DIRECTION ( 'NONE',  ( 1.000000000000000000, 0.0000000000000000000, 0.0000000000000000000 ) ) ;
#181 = FACE_OUTER_BOUND ( 'NONE', #151, .T. ) ;
#182 = CALENDAR_DATE ( 2021, 1, 11 ) ;
#183 = PERSON_AND_ORGANIZATION_ROLE ( 'design_owner' ) ;
#184 = EDGE_LOOP ( 'NONE', ( #132 ) ) ;
#185 = EDGE_LOOP ( 'NONE', ( #24 ) ) ;
#186 = CALENDAR_DATE ( 2021, 1, 11 ) ;
#187 = CALENDAR_DATE ( 2021, 1, 11 ) ;
#188 = ADVANCED_FACE ( 'NONE', ( #15 ), #100, .F. ) ;
#189 = CIRCLE ( 'NONE', #123, 1.499999999999994671 ) ;
#190 = APPROVAL ( #202, 'UNSPECIFIED' ) ;
#191 = DIRECTION ( 'NONE',  ( 3.491481338843133355E-15, -1.224646799147353207E-16, 1.000000000000000000 ) ) ;
#192 = ADVANCED_FACE ( 'NONE', ( #11, #30 ), #32, .T. ) ;
#193 = DIRECTION ( 'NONE',  ( 3.491481338843133355E-15, -1.219242935835426903E-16, 1.000000000000000000 ) ) ;
#194 =( GEOMETRIC_REPRESENTATION_CONTEXT ( 3 ) GLOBAL_UNCERTAINTY_ASSIGNED_CONTEXT ( ( #225 ) ) GLOBAL_UNIT_ASSIGNED_CONTEXT ( ( #78, #147, #195 ) ) REPRESENTATION_CONTEXT ( 'NONE', 'WORKASPACE' ) );
#195 =( NAMED_UNIT ( * ) SI_UNIT ( $, .STERADIAN. ) SOLID_ANGLE_UNIT ( ) );
#196 = CARTESIAN_POINT ( 'NONE',  ( 5.237222008264698455E-15, 1.124819836996387185E-32, 1.499999999999999556 ) ) ;
#197 = APPROVAL_ROLE ( '' ) ;
#198 = CARTESIAN_POINT ( 'NONE',  ( 1.326762908760390423E-13, -4.653657836759941941E-15, 38.00000000000000000 ) ) ;
#199 = CARTESIAN_POINT ( 'NONE',  ( 2.244452867314346292E-14, -1.499999999999995559, 6.428368504635979974 ) ) ;
#200 = CARTESIAN_POINT ( 'NONE',  ( -2.458134906540053367E-30, 8.583931372586065779E-32, -7.040378189031166159E-16 ) ) ;
#201 = CIRCLE ( 'NONE', #38, 1.199999999999995959 ) ;
#202 = APPROVAL_STATUS ( 'not_yet_approved' ) ;
#203 = DIRECTION ( 'NONE',  ( 0.0000000000000000000, 0.0000000000000000000, 1.000000000000000000 ) ) ;
#204 = PERSON_AND_ORGANIZATION_ROLE ( 'classification_officer' ) ;
#205 = ORIENTED_EDGE ( 'NONE', *, *, #152, .F. ) ;
#206 = LOCAL_TIME ( 11, 35, 21.00000000000000000, #39 ) ;
#207 = ORIENTED_EDGE ( 'NONE', *, *, #94, .T. ) ;
#208 = CC_DESIGN_DATE_AND_TIME_ASSIGNMENT ( #209, #242, ( #68 ) ) ;
#209 = DATE_AND_TIME ( #186, #6 ) ;
#210 = APPLICATION_CONTEXT ( 'configuration controlled 3d designs of mechanical parts and assemblies' ) ;
#211 = ADVANCED_FACE ( 'NONE', ( #218, #35 ), #154, .T. ) ;
#212 = DIRECTION ( 'NONE',  ( -4.275831445896958607E-31, -1.000000000000000000, -1.224646799147353207E-16 ) ) ;
#213 = CC_DESIGN_PERSON_AND_ORGANIZATION_ASSIGNMENT ( #139, #58, ( #90 ) ) ;
#214 = PERSON_AND_ORGANIZATION ( #173, #88 ) ;
#215 = DIRECTION ( 'NONE',  ( 0.0000000000000000000, -1.000000000000000000, 0.0000000000000000000 ) ) ;
#216 = LOCAL_TIME ( 11, 35, 21.00000000000000000, #165 ) ;
#217 = COORDINATED_UNIVERSAL_TIME_OFFSET ( 1, 0, .AHEAD. ) ;
#218 = FACE_BOUND ( 'NONE', #59, .T. ) ;
#219 = CARTESIAN_POINT ( 'NONE',  ( -2.564559005489696199E-30, -0.2500000000000000000, -7.345188922990023377E-16 ) ) ;
#220 = CARTESIAN_POINT ( 'NONE',  ( 7.044545740489949314E-15, -2.459990988554960633E-16, 2.017638090205026380 ) ) ;
#221 = APPROVAL_DATE_TIME ( #70, #148 ) ;
#222 = AXIS2_PLACEMENT_3D ( 'NONE', #109, #93, #234 ) ;
#223 = CARTESIAN_POINT ( 'NONE',  ( 1.316288464743861212E-13, 1.499999999999992228, 37.69999999999999574 ) ) ;
#224 = CC_DESIGN_PERSON_AND_ORGANIZATION_ASSIGNMENT ( #105, #204, ( #68 ) ) ;
#225 = UNCERTAINTY_MEASURE_WITH_UNIT (LENGTH_MEASURE( 1.000000000000000082E-05 ), #78, 'distance_accuracy_value', 'NONE');
#226 = EDGE_LOOP ( 'NONE', ( #205 ) ) ;
#227 = APPROVAL_DATE_TIME ( #119, #159 ) ;
#228 = PLANE ( 'NONE',  #5 ) ;
#229 = EDGE_LOOP ( 'NONE', ( #22 ) ) ;
#230 = AXIS2_PLACEMENT_3D ( 'NONE', #167, #203, #180 ) ;
#231 = AXIS2_PLACEMENT_3D ( 'NONE', #196, #191, #9 ) ;
#232 = DIRECTION ( 'NONE',  ( 0.0000000000000000000, 1.000000000000000000, 0.0000000000000000000 ) ) ;
#233 = CALENDAR_DATE ( 2021, 1, 11 ) ;
#234 = DIRECTION ( 'NONE',  ( 4.275831445896958607E-31, 1.000000000000000000, 1.224646799147352961E-16 ) ) ;
#235 = CARTESIAN_POINT ( 'NONE',  ( 1.326762908760390423E-13, -4.653657836759941941E-15, 38.00000000000000000 ) ) ;
#236 = DATE_TIME_ROLE ( 'creation_date' ) ;
#237 = VERTEX_POINT ( 'NONE', #19 ) ;
#238 = DIRECTION ( 'NONE',  ( 3.491481338843133355E-15, -1.219242935835426903E-16, 1.000000000000000000 ) ) ;
#239 = APPROVAL_ROLE ( '' ) ;
#240 = EDGE_CURVE ( 'NONE', #176, #176, #134, .T. ) ;
#241 = AXIS2_PLACEMENT_3D ( 'NONE', #220, #166, #69 ) ;
#242 = DATE_TIME_ROLE ( 'classification_date' ) ;
#243 = EDGE_LOOP ( 'NONE', ( #169 ) ) ;
ENDSEC;
END-ISO-10303-21;
