ISO-10303-21;
HEADER;
FILE_DESCRIPTION (( 'STEP AP203' ),
    '1' );
FILE_NAME ('47928.step',
    '2021-11-01T09:16:32',
    ( '' ),
    ( '' ),
    'SwSTEP 2.0',
    'SolidWorks 2019',
    '' );
FILE_SCHEMA (( 'CONFIG_CONTROL_DESIGN' ));
ENDSEC;

DATA;
#1 = PRODUCT ( '47928', '47928', '', ( #67 ) ) ;
#2 = FACE_OUTER_BOUND ( 'NONE', #137, .T. ) ;
#3 = CIRCLE ( 'NONE', #238, 0.7249999999999998668 ) ;
#4 = ADVANCED_FACE ( 'NONE', ( #114 ), #175, .F. ) ;
#5 = FACE_BOUND ( 'NONE', #231, .T. ) ;
#6 = AXIS2_PLACEMENT_3D ( 'NONE', #55, #78, #62 ) ;
#7 = PERSON_AND_ORGANIZATION ( #174, #141 ) ;
#8 = DIRECTION ( 'NONE',  ( -3.491481338843133355E-15, 1.224646799147353207E-16, -1.000000000000000000 ) ) ;
#9 = CARTESIAN_POINT ( 'NONE',  ( 1.228176774875465645E-14, -0.7931483474218607999, 3.517638090205028600 ) ) ;
#10 = CC_DESIGN_PERSON_AND_ORGANIZATION_ASSIGNMENT ( #133, #54, ( #168 ) ) ;
#11 = APPROVAL_PERSON_ORGANIZATION ( #32, #116, #214 ) ;
#12 = ORIENTED_EDGE ( 'NONE', *, *, #74, .T. ) ;
#13 = ORIENTED_EDGE ( 'NONE', *, *, #223, .T. ) ;
#14 = MANIFOLD_SOLID_BREP ( 'Corps-Déplacer/Copier1[2]', #164 ) ;
#15 = DESIGN_CONTEXT ( 'detailed design', #105, 'design' ) ;
#16 = APPLICATION_CONTEXT ( 'configuration controlled 3d designs of mechanical parts and assemblies' ) ;
#17 = DATE_AND_TIME ( #91, #94 ) ;
#18 = COORDINATED_UNIVERSAL_TIME_OFFSET ( 1, 0, .AHEAD. ) ;
#19 = CARTESIAN_POINT ( 'NONE',  ( 1.047444401652940007E-14, 1.124819836996384858E-32, 3.000000000000000000 ) ) ;
#20 = DIRECTION ( 'NONE',  ( 0.0000000000000000000, 1.000000000000000000, 0.0000000000000000000 ) ) ;
#21 = DIRECTION ( 'NONE',  ( 0.0000000000000000000, 1.000000000000000000, 0.0000000000000000000 ) ) ;
#22 = APPROVAL ( #47, 'UNSPECIFIED' ) ;
#23 = DIRECTION ( 'NONE',  ( -3.491481338843133355E-15, 1.224646799147353207E-16, -1.000000000000000000 ) ) ;
#24 = PRODUCT_DEFINITION_SHAPE ( 'NONE', 'NONE',  #209 ) ;
#25 = APPROVAL_ROLE ( '' ) ;
#26 = FACE_OUTER_BOUND ( 'NONE', #153, .T. ) ;
#27 = VERTEX_POINT ( 'NONE', #151 ) ;
#28 = EDGE_LOOP ( 'NONE', ( #12 ) ) ;
#29 = AXIS2_PLACEMENT_3D ( 'NONE', #188, #184, #119 ) ;
#30 = APPLICATION_PROTOCOL_DEFINITION ( 'international standard', 'config_control_design', 1994, #16 ) ;
#31 = ORIENTED_EDGE ( 'NONE', *, *, #237, .T. ) ;
#32 = PERSON_AND_ORGANIZATION ( #174, #141 ) ;
#33 = ORIENTED_EDGE ( 'NONE', *, *, #44, .T. ) ;
#34 = AXIS2_PLACEMENT_3D ( 'NONE', #100, #23, #118 ) ;
#35 = CC_DESIGN_APPROVAL ( #68, ( #209 ) ) ;
#36 = AXIS2_PLACEMENT_3D ( 'NONE', #190, #169, #154 ) ;
#37 = CARTESIAN_POINT ( 'NONE',  ( 2.149231745004341200E-14, -7.505225914906492595E-16, 6.155644371040708940 ) ) ;
#38 = CYLINDRICAL_SURFACE ( 'NONE', #34, 1.499999999999991784 ) ;
#39 = CC_DESIGN_DATE_AND_TIME_ASSIGNMENT ( #172, #224, ( #209 ) ) ;
#40 = CARTESIAN_POINT ( 'NONE',  ( 0.0000000000000000000, 0.0000000000000000000, 0.0000000000000000000 ) ) ;
#41 = DATE_AND_TIME ( #152, #130 ) ;
#42 = DIRECTION ( 'NONE',  ( 3.491481338843133355E-15, -1.224646799147353207E-16, 1.000000000000000000 ) ) ;
#43 = VERTEX_POINT ( 'NONE', #194 ) ;
#44 = EDGE_CURVE ( 'NONE', #113, #113, #64, .T. ) ;
#45 = ORIENTED_EDGE ( 'NONE', *, *, #146, .T. ) ;
#46 = CARTESIAN_POINT ( 'NONE',  ( 1.326762908760390423E-13, 1.199999999999989297, 38.00000000000000000 ) ) ;
#47 = APPROVAL_STATUS ( 'not_yet_approved' ) ;
#48 = LOCAL_TIME ( 10, 16, 31.00000000000000000, #101 ) ;
#49 =( NAMED_UNIT ( * ) SI_UNIT ( $, .STERADIAN. ) SOLID_ANGLE_UNIT ( ) );
#50 = EDGE_LOOP ( 'NONE', ( #53 ) ) ;
#51 = ADVANCED_FACE ( 'NONE', ( #26, #134 ), #38, .T. ) ;
#52 = CLOSED_SHELL ( 'NONE', ( #51, #88, #4, #150, #81, #180 ) ) ;
#53 = ORIENTED_EDGE ( 'NONE', *, *, #74, .F. ) ;
#54 = PERSON_AND_ORGANIZATION_ROLE ( 'creator' ) ;
#55 = CARTESIAN_POINT ( 'NONE',  ( 3.452270320028493665E-14, -1.205550249821386893E-15, 9.887695178609686053 ) ) ;
#56 = CARTESIAN_POINT ( 'NONE',  ( 1.326762908760390423E-13, 8.998558695971030697E-33, 38.00000000000000000 ) ) ;
#57 = CC_DESIGN_PERSON_AND_ORGANIZATION_ASSIGNMENT ( #128, #198, ( #168 ) ) ;
#58 = CC_DESIGN_SECURITY_CLASSIFICATION ( #87, ( #168 ) ) ;
#59 = DIRECTION ( 'NONE',  ( -3.491481338843133355E-15, 1.224646799147353207E-16, -1.000000000000000000 ) ) ;
#60 = FACE_OUTER_BOUND ( 'NONE', #83, .T. ) ;
#61 = FACE_OUTER_BOUND ( 'NONE', #109, .T. ) ;
#62 = DIRECTION ( 'NONE',  ( 0.0000000000000000000, -1.000000000000000000, 0.0000000000000000000 ) ) ;
#63 = VERTEX_POINT ( 'NONE', #227 ) ;
#64 = CIRCLE ( 'NONE', #236, 1.499999999999993783 ) ;
#65 = PERSON_AND_ORGANIZATION ( #174, #141 ) ;
#66 = ORIENTED_EDGE ( 'NONE', *, *, #193, .T. ) ;
#67 = MECHANICAL_CONTEXT ( 'NONE', #16, 'mechanical' ) ;
#68 = APPROVAL ( #86, 'UNSPECIFIED' ) ;
#69 = AXIS2_PLACEMENT_3D ( 'NONE', #162, #220, #103 ) ;
#70 = ORIENTED_EDGE ( 'NONE', *, *, #44, .F. ) ;
#71 = CC_DESIGN_PERSON_AND_ORGANIZATION_ASSIGNMENT ( #178, #158, ( #87 ) ) ;
#72 = CIRCLE ( 'NONE', #29, 0.7249999999999998668 ) ;
#73 = CALENDAR_DATE ( 2021, 1, 11 ) ;
#74 = EDGE_CURVE ( 'NONE', #43, #43, #195, .T. ) ;
#75 = PLANE ( 'NONE',  #171 ) ;
#76 = FACE_OUTER_BOUND ( 'NONE', #170, .T. ) ;
#77 = CYLINDRICAL_SURFACE ( 'NONE', #226, 0.7249999999999999778 ) ;
#78 = DIRECTION ( 'NONE',  ( 3.491481338843133355E-15, -1.219242935835426903E-16, 1.000000000000000000 ) ) ;
#79 = COORDINATED_UNIVERSAL_TIME_OFFSET ( 1, 0, .AHEAD. ) ;
#80 = DIRECTION ( 'NONE',  ( -4.313165639262448601E-31, -1.000000000000000000, -1.219242935835426903E-16 ) ) ;
#81 = ADVANCED_FACE ( 'NONE', ( #206, #60 ), #217, .F. ) ;
#82 = DIRECTION ( 'NONE',  ( -4.256963957985708889E-31, -1.000000000000000000, -1.219242935835426903E-16 ) ) ;
#83 = EDGE_LOOP ( 'NONE', ( #107 ) ) ;
#84 =( NAMED_UNIT ( * ) PLANE_ANGLE_UNIT ( ) SI_UNIT ( $, .RADIAN. ) );
#85 = EDGE_LOOP ( 'NONE', ( #31 ) ) ;
#86 = APPROVAL_STATUS ( 'not_yet_approved' ) ;
#87 = SECURITY_CLASSIFICATION ( '', '', #142 ) ;
#88 = ADVANCED_FACE ( 'NONE', ( #76, #5 ), #221, .T. ) ;
#89 = CIRCLE ( 'NONE', #179, 1.499999999999991784 ) ;
#90 = MANIFOLD_SOLID_BREP ( 'Corps-Déplacer/Copier1[1]', #52 ) ;
#91 = CALENDAR_DATE ( 2021, 1, 11 ) ;
#92 = EDGE_CURVE ( 'NONE', #27, #27, #89, .T. ) ;
#93 = DIRECTION ( 'NONE',  ( -3.491481338843133355E-15, 1.224646799147353207E-16, -1.000000000000000000 ) ) ;
#94 = LOCAL_TIME ( 10, 16, 31.00000000000000000, #18 ) ;
#95 = PLANE ( 'NONE',  #96 ) ;
#96 = AXIS2_PLACEMENT_3D ( 'NONE', #159, #42, #148 ) ;
#97 = DIRECTION ( 'NONE',  ( 0.0000000000000000000, 1.000000000000000000, 0.0000000000000000000 ) ) ;
#98 = ADVANCED_BREP_SHAPE_REPRESENTATION ( '47928', ( #90, #14, #36 ), #216 ) ;
#99 = FACE_OUTER_BOUND ( 'NONE', #235, .T. ) ;
#100 = CARTESIAN_POINT ( 'NONE',  ( 0.0000000000000000000, 0.0000000000000000000, 0.0000000000000000000 ) ) ;
#101 = COORDINATED_UNIVERSAL_TIME_OFFSET ( 1, 0, .AHEAD. ) ;
#102 = CC_DESIGN_PERSON_AND_ORGANIZATION_ASSIGNMENT ( #7, #230, ( #1 ) ) ;
#103 = DIRECTION ( 'NONE',  ( -4.256963957985711516E-31, -1.000000000000000000, -1.219242935835425917E-16 ) ) ;
#104 = AXIS2_PLACEMENT_3D ( 'NONE', #182, #181, #80 ) ;
#105 = APPLICATION_CONTEXT ( 'configuration controlled 3d designs of mechanical parts and assemblies' ) ;
#106 =( LENGTH_UNIT ( ) NAMED_UNIT ( * ) SI_UNIT ( .MILLI., .METRE. ) );
#107 = ORIENTED_EDGE ( 'NONE', *, *, #193, .F. ) ;
#108 = APPROVAL_ROLE ( '' ) ;
#109 = EDGE_LOOP ( 'NONE', ( #123 ) ) ;
#110 = AXIS2_PLACEMENT_3D ( 'NONE', #242, #218, #201 ) ;
#111 = VERTEX_POINT ( 'NONE', #163 ) ;
#112 = EDGE_LOOP ( 'NONE', ( #13 ) ) ;
#113 = VERTEX_POINT ( 'NONE', #125 ) ;
#114 = FACE_OUTER_BOUND ( 'NONE', #157, .T. ) ;
#115 = LOCAL_TIME ( 10, 16, 31.00000000000000000, #234 ) ;
#116 = APPROVAL ( #127, 'UNSPECIFIED' ) ;
#117 = AXIS2_PLACEMENT_3D ( 'NONE', #56, #93, #177 ) ;
#118 = DIRECTION ( 'NONE',  ( 4.275831445896958607E-31, 1.000000000000000000, 1.224646799147353207E-16 ) ) ;
#119 = DIRECTION ( 'NONE',  ( 0.0000000000000000000, -1.000000000000000000, 0.0000000000000000000 ) ) ;
#120 = DIRECTION ( 'NONE',  ( -3.491481338843133355E-15, 1.219242935835426903E-16, -1.000000000000000000 ) ) ;
#121 = CALENDAR_DATE ( 2021, 1, 11 ) ;
#122 = DIRECTION ( 'NONE',  ( -4.275831445896958607E-31, -1.000000000000000000, -1.224646799147353207E-16 ) ) ;
#123 = ORIENTED_EDGE ( 'NONE', *, *, #92, .T. ) ;
#124 = COORDINATED_UNIVERSAL_TIME_OFFSET ( 1, 0, .AHEAD. ) ;
#125 = CARTESIAN_POINT ( 'NONE',  ( 1.316288464743861212E-13, 1.499999999999989120, 37.69999999999999574 ) ) ;
#126 = AXIS2_PLACEMENT_3D ( 'NONE', #161, #143, #97 ) ;
#127 = APPROVAL_STATUS ( 'not_yet_approved' ) ;
#128 = PERSON_AND_ORGANIZATION ( #174, #141 ) ;
#129 = DIRECTION ( 'NONE',  ( 3.491481338843133355E-15, -1.219242935835426903E-16, 1.000000000000000000 ) ) ;
#130 = LOCAL_TIME ( 10, 16, 31.00000000000000000, #79 ) ;
#131 = CARTESIAN_POINT ( 'NONE',  ( 1.047444401652940007E-14, 1.124819836996384858E-32, 3.000000000000000000 ) ) ;
#132 = CARTESIAN_POINT ( 'NONE',  ( 1.047444401652939849E-14, -3.657728807506280215E-16, 2.999999999999999556 ) ) ;
#133 = PERSON_AND_ORGANIZATION ( #174, #141 ) ;
#134 = FACE_OUTER_BOUND ( 'NONE', #211, .T. ) ;
#135 = AXIS2_PLACEMENT_3D ( 'NONE', #19, #147, #149 ) ;
#136 = CALENDAR_DATE ( 2021, 1, 11 ) ;
#137 = EDGE_LOOP ( 'NONE', ( #155 ) ) ;
#138 = PERSON_AND_ORGANIZATION ( #174, #141 ) ;
#139 = ORIENTED_EDGE ( 'NONE', *, *, #146, .F. ) ;
#140 = DATE_AND_TIME ( #73, #115 ) ;
#141 = ORGANIZATION ( 'UNSPECIFIED', 'UNSPECIFIED', '' ) ;
#142 = SECURITY_CLASSIFICATION_LEVEL ( 'unclassified' ) ;
#143 = DIRECTION ( 'NONE',  ( -3.491481338843133355E-15, 1.224646799147353207E-16, -1.000000000000000000 ) ) ;
#144 = DIRECTION ( 'NONE',  ( 0.0000000000000000000, -1.000000000000000000, 0.0000000000000000000 ) ) ;
#145 = CC_DESIGN_APPROVAL ( #116, ( #87 ) ) ;
#146 = EDGE_CURVE ( 'NONE', #205, #205, #207, .T. ) ;
#147 = DIRECTION ( 'NONE',  ( 3.491481338843133355E-15, -1.224646799147353207E-16, 1.000000000000000000 ) ) ;
#148 = DIRECTION ( 'NONE',  ( -4.275831445896958607E-31, -1.000000000000000000, -1.224646799147353207E-16 ) ) ;
#149 = DIRECTION ( 'NONE',  ( -4.275831445896958607E-31, -1.000000000000000000, -1.224646799147353207E-16 ) ) ;
#150 = ADVANCED_FACE ( 'NONE', ( #185, #61 ), #197, .T. ) ;
#151 = CARTESIAN_POINT ( 'NONE',  ( 2.149231745004341200E-14, -1.499999999999992450, 6.155644371040708940 ) ) ;
#152 = CALENDAR_DATE ( 2021, 1, 11 ) ;
#153 = EDGE_LOOP ( 'NONE', ( #33 ) ) ;
#154 = DIRECTION ( 'NONE',  ( 1.000000000000000000, 0.0000000000000000000, 0.0000000000000000000 ) ) ;
#155 = ORIENTED_EDGE ( 'NONE', *, *, #237, .F. ) ;
#156 = VERTEX_POINT ( 'NONE', #9 ) ;
#157 = EDGE_LOOP ( 'NONE', ( #139 ) ) ;
#158 = PERSON_AND_ORGANIZATION_ROLE ( 'classification_officer' ) ;
#159 = CARTESIAN_POINT ( 'NONE',  ( -1.282754905350004587E-30, 4.499298539707956128E-32, -3.673956068672651857E-16 ) ) ;
#160 = FACE_OUTER_BOUND ( 'NONE', #50, .T. ) ;
#161 = CARTESIAN_POINT ( 'NONE',  ( 1.326762908760390423E-13, -4.653657836759941941E-15, 38.00000000000000000 ) ) ;
#162 = CARTESIAN_POINT ( 'NONE',  ( -3.515514414538511555E-30, 1.227635407375228237E-31, -1.006883346454700425E-15 ) ) ;
#163 = CARTESIAN_POINT ( 'NONE',  ( 1.047444401652939849E-14, -0.7250000000000001998, 2.999999999999999556 ) ) ;
#164 = CLOSED_SHELL ( 'NONE', ( #189, #241, #183 ) ) ;
#165 = CARTESIAN_POINT ( 'NONE',  ( 1.326762908760390423E-13, -4.653657836759941941E-15, 38.00000000000000000 ) ) ;
#166 = CC_DESIGN_PERSON_AND_ORGANIZATION_ASSIGNMENT ( #65, #210, ( #209 ) ) ;
#167 = APPROVAL_PERSON_ORGANIZATION ( #208, #22, #25 ) ;
#168 = PRODUCT_DEFINITION_FORMATION_WITH_SPECIFIED_SOURCE ( 'ANY', '', #1, .NOT_KNOWN. ) ;
#169 = DIRECTION ( 'NONE',  ( 0.0000000000000000000, 0.0000000000000000000, 1.000000000000000000 ) ) ;
#170 = EDGE_LOOP ( 'NONE', ( #70 ) ) ;
#171 = AXIS2_PLACEMENT_3D ( 'NONE', #131, #225, #122 ) ;
#172 = DATE_AND_TIME ( #136, #48 ) ;
#173 = EDGE_LOOP ( 'NONE', ( #66 ) ) ;
#174 = PERSON ( 'UNSPECIFIED', 'UNSPECIFIED', 'UNSPECIFIED', ('UNSPECIFIED'), ('UNSPECIFIED'), ('UNSPECIFIED') ) ;
#175 = PLANE ( 'NONE',  #117 ) ;
#176 = LOCAL_TIME ( 10, 16, 31.00000000000000000, #124 ) ;
#177 = DIRECTION ( 'NONE',  ( 4.275831445896958607E-31, 1.000000000000000000, 1.224646799147353207E-16 ) ) ;
#178 = PERSON_AND_ORGANIZATION ( #174, #141 ) ;
#179 = AXIS2_PLACEMENT_3D ( 'NONE', #37, #120, #144 ) ;
#180 = ADVANCED_FACE ( 'NONE', ( #99 ), #219, .F. ) ;
#181 = DIRECTION ( 'NONE',  ( 3.491481338843133355E-15, -1.219242935835426903E-16, 1.000000000000000000 ) ) ;
#182 = CARTESIAN_POINT ( 'NONE',  ( 1.047444401652939849E-14, -4.336808689942017736E-16, 2.999999999999999556 ) ) ;
#183 = ADVANCED_FACE ( 'NONE', ( #160 ), #95, .F. ) ;
#184 = DIRECTION ( 'NONE',  ( 3.491481338843133355E-15, -1.219242935835426903E-16, 1.000000000000000000 ) ) ;
#185 = FACE_BOUND ( 'NONE', #173, .T. ) ;
#186 = CC_DESIGN_APPROVAL ( #22, ( #168 ) ) ;
#187 = APPROVAL_DATE_TIME ( #192, #22 ) ;
#188 = CARTESIAN_POINT ( 'NONE',  ( 1.047444401652939849E-14, -3.657728807506280215E-16, 2.999999999999999556 ) ) ;
#189 = ADVANCED_FACE ( 'NONE', ( #222 ), #75, .T. ) ;
#190 = CARTESIAN_POINT ( 'NONE',  ( 0.0000000000000000000, 0.0000000000000000000, 0.0000000000000000000 ) ) ;
#191 = ORIENTED_EDGE ( 'NONE', *, *, #223, .F. ) ;
#192 = DATE_AND_TIME ( #121, #176 ) ;
#193 = EDGE_CURVE ( 'NONE', #156, #156, #240, .T. ) ;
#194 = CARTESIAN_POINT ( 'NONE',  ( -3.824144301492475312E-30, -0.7249999999999999778, -1.095278459302768644E-15 ) ) ;
#195 = CIRCLE ( 'NONE', #69, 0.7249999999999999778 ) ;
#196 = UNCERTAINTY_MEASURE_WITH_UNIT (LENGTH_MEASURE( 1.000000000000000082E-05 ), #106, 'distance_accuracy_value', 'NONE');
#197 = CONICAL_SURFACE ( 'NONE', #6, 2.499999999999992895, 0.2617993877991429130 ) ;
#198 = PERSON_AND_ORGANIZATION_ROLE ( 'design_supplier' ) ;
#199 = DATE_TIME_ROLE ( 'classification_date' ) ;
#200 = FACE_OUTER_BOUND ( 'NONE', #28, .T. ) ;
#201 = DIRECTION ( 'NONE',  ( 0.0000000000000000000, -1.000000000000000000, 0.0000000000000000000 ) ) ;
#202 = DIRECTION ( 'NONE',  ( 0.0000000000000000000, -1.000000000000000000, 0.0000000000000000000 ) ) ;
#203 = APPLICATION_PROTOCOL_DEFINITION ( 'international standard', 'config_control_design', 1994, #105 ) ;
#204 = CARTESIAN_POINT ( 'NONE',  ( 1.316288464743861212E-13, -4.616918432785521081E-15, 37.69999999999999574 ) ) ;
#205 = VERTEX_POINT ( 'NONE', #46 ) ;
#206 = FACE_OUTER_BOUND ( 'NONE', #112, .T. ) ;
#207 = CIRCLE ( 'NONE', #243, 1.199999999999993738 ) ;
#208 = PERSON_AND_ORGANIZATION ( #174, #141 ) ;
#209 = PRODUCT_DEFINITION ( 'UNKNOWN', '', #168, #15 ) ;
#210 = PERSON_AND_ORGANIZATION_ROLE ( 'creator' ) ;
#211 = EDGE_LOOP ( 'NONE', ( #229 ) ) ;
#212 = APPROVAL_DATE_TIME ( #17, #116 ) ;
#213 = SHAPE_DEFINITION_REPRESENTATION ( #24, #98 ) ;
#214 = APPROVAL_ROLE ( '' ) ;
#215 = PRODUCT_RELATED_PRODUCT_CATEGORY ( 'detail', '', ( #1 ) ) ;
#216 =( GEOMETRIC_REPRESENTATION_CONTEXT ( 3 ) GLOBAL_UNCERTAINTY_ASSIGNED_CONTEXT ( ( #196 ) ) GLOBAL_UNIT_ASSIGNED_CONTEXT ( ( #106, #84, #49 ) ) REPRESENTATION_CONTEXT ( 'NONE', 'WORKASPACE' ) );
#217 = TOROIDAL_SURFACE ( 'NONE', #104, 2.725000000000000533, 2.000000000000000000 ) ;
#218 = DIRECTION ( 'NONE',  ( 3.491481338843133355E-15, -1.219242935835426903E-16, 1.000000000000000000 ) ) ;
#219 = PLANE ( 'NONE',  #135 ) ;
#220 = DIRECTION ( 'NONE',  ( 3.491481338843133355E-15, -1.219242935835426903E-16, 1.000000000000000000 ) ) ;
#221 = CONICAL_SURFACE ( 'NONE', #126, 1.199999999999993738, 0.7853981633974453924 ) ;
#222 = FACE_OUTER_BOUND ( 'NONE', #85, .T. ) ;
#223 = EDGE_CURVE ( 'NONE', #111, #111, #3, .T. ) ;
#224 = DATE_TIME_ROLE ( 'creation_date' ) ;
#225 = DIRECTION ( 'NONE',  ( 3.491481338843133355E-15, -1.224646799147353207E-16, 1.000000000000000000 ) ) ;
#226 = AXIS2_PLACEMENT_3D ( 'NONE', #40, #232, #82 ) ;
#227 = CARTESIAN_POINT ( 'NONE',  ( 1.047444401652939849E-14, -0.7250000000000001998, 2.999999999999999556 ) ) ;
#228 = APPROVAL_DATE_TIME ( #41, #68 ) ;
#229 = ORIENTED_EDGE ( 'NONE', *, *, #92, .F. ) ;
#230 = PERSON_AND_ORGANIZATION_ROLE ( 'design_owner' ) ;
#231 = EDGE_LOOP ( 'NONE', ( #45 ) ) ;
#232 = DIRECTION ( 'NONE',  ( 3.491481338843133355E-15, -1.219242935835426903E-16, 1.000000000000000000 ) ) ;
#233 = APPROVAL_PERSON_ORGANIZATION ( #138, #68, #108 ) ;
#234 = COORDINATED_UNIVERSAL_TIME_OFFSET ( 1, 0, .AHEAD. ) ;
#235 = EDGE_LOOP ( 'NONE', ( #191 ) ) ;
#236 = AXIS2_PLACEMENT_3D ( 'NONE', #204, #59, #20 ) ;
#237 = EDGE_CURVE ( 'NONE', #63, #63, #72, .T. ) ;
#238 = AXIS2_PLACEMENT_3D ( 'NONE', #132, #129, #202 ) ;
#239 = CC_DESIGN_DATE_AND_TIME_ASSIGNMENT ( #140, #199, ( #87 ) ) ;
#240 = CIRCLE ( 'NONE', #110, 0.7931483474218603558 ) ;
#241 = ADVANCED_FACE ( 'NONE', ( #200, #2 ), #77, .T. ) ;
#242 = CARTESIAN_POINT ( 'NONE',  ( 1.228176774875465645E-14, -4.288855392308103452E-16, 3.517638090205028600 ) ) ;
#243 = AXIS2_PLACEMENT_3D ( 'NONE', #165, #8, #21 ) ;
ENDSEC;
END-ISO-10303-21;
