ISO-10303-21;
HEADER;
FILE_DESCRIPTION (( 'STEP AP203' ),
    '1' );
FILE_NAME ('47927.step',
    '2021-11-01T09:16:31',
    ( '' ),
    ( '' ),
    'SwSTEP 2.0',
    'SolidWorks 2019',
    '' );
FILE_SCHEMA (( 'CONFIG_CONTROL_DESIGN' ));
ENDSEC;

DATA;
#1 =( NAMED_UNIT ( * ) PLANE_ANGLE_UNIT ( ) SI_UNIT ( $, .RADIAN. ) );
#2 = APPLICATION_CONTEXT ( 'configuration controlled 3d designs of mechanical parts and assemblies' ) ;
#3 = FACE_OUTER_BOUND ( 'NONE', #66, .T. ) ;
#4 = APPROVAL_PERSON_ORGANIZATION ( #188, #151, #92 ) ;
#5 = ORGANIZATION ( 'UNSPECIFIED', 'UNSPECIFIED', '' ) ;
#6 = PERSON_AND_ORGANIZATION ( #136, #5 ) ;
#7 = EDGE_LOOP ( 'NONE', ( #42 ) ) ;
#8 = APPROVAL ( #81, 'UNSPECIFIED' ) ;
#9 = DIRECTION ( 'NONE',  ( -3.491481338843133355E-15, 1.224646799147353207E-16, -1.000000000000000000 ) ) ;
#10 = DIRECTION ( 'NONE',  ( 3.491481338843133355E-15, -1.219242935835426903E-16, 1.000000000000000000 ) ) ;
#11 = CC_DESIGN_PERSON_AND_ORGANIZATION_ASSIGNMENT ( #229, #190, ( #39 ) ) ;
#12 = DIRECTION ( 'NONE',  ( -4.275831445896958607E-31, -1.000000000000000000, -1.224646799147353207E-16 ) ) ;
#13 = CARTESIAN_POINT ( 'NONE',  ( 1.316288464743861212E-13, -4.616918432785521081E-15, 37.69999999999999574 ) ) ;
#14 = DIRECTION ( 'NONE',  ( 3.491481338843133355E-15, -1.224646799147353207E-16, 1.000000000000000000 ) ) ;
#15 = APPROVAL_STATUS ( 'not_yet_approved' ) ;
#16 = DATE_AND_TIME ( #184, #21 ) ;
#17 = AXIS2_PLACEMENT_3D ( 'NONE', #34, #147, #215 ) ;
#18 = MECHANICAL_CONTEXT ( 'NONE', #216, 'mechanical' ) ;
#19 = MANIFOLD_SOLID_BREP ( 'Corps-Déplacer/Copier1[1]', #89 ) ;
#20 = ADVANCED_FACE ( 'NONE', ( #29, #103 ), #53, .T. ) ;
#21 = LOCAL_TIME ( 10, 16, 31.00000000000000000, #111 ) ;
#22 = DATE_AND_TIME ( #231, #203 ) ;
#23 = EDGE_LOOP ( 'NONE', ( #230 ) ) ;
#24 = PERSON_AND_ORGANIZATION_ROLE ( 'classification_officer' ) ;
#25 = CC_DESIGN_SECURITY_CLASSIFICATION ( #112, ( #39 ) ) ;
#26 = DATE_AND_TIME ( #114, #80 ) ;
#27 = ORIENTED_EDGE ( 'NONE', *, *, #126, .F. ) ;
#28 = ORIENTED_EDGE ( 'NONE', *, *, #154, .F. ) ;
#29 = FACE_OUTER_BOUND ( 'NONE', #140, .T. ) ;
#30 = AXIS2_PLACEMENT_3D ( 'NONE', #174, #179, #106 ) ;
#31 = DIRECTION ( 'NONE',  ( 0.0000000000000000000, 1.000000000000000000, 0.0000000000000000000 ) ) ;
#32 = CC_DESIGN_PERSON_AND_ORGANIZATION_ASSIGNMENT ( #75, #169, ( #93 ) ) ;
#33 = FACE_OUTER_BOUND ( 'NONE', #235, .T. ) ;
#34 = CARTESIAN_POINT ( 'NONE',  ( 9.776147748760771817E-15, -3.413880220339194539E-16, 2.799999999999999378 ) ) ;
#35 = DIRECTION ( 'NONE',  ( 4.275831445896958607E-31, 1.000000000000000000, 1.224646799147353207E-16 ) ) ;
#36 = DIRECTION ( 'NONE',  ( 0.0000000000000000000, 1.000000000000000000, 0.0000000000000000000 ) ) ;
#37 = CALENDAR_DATE ( 2021, 1, 11 ) ;
#38 = AXIS2_PLACEMENT_3D ( 'NONE', #91, #71, #145 ) ;
#39 = PRODUCT_DEFINITION_FORMATION_WITH_SPECIFIED_SOURCE ( 'ANY', '', #110, .NOT_KNOWN. ) ;
#40 = COORDINATED_UNIVERSAL_TIME_OFFSET ( 1, 0, .AHEAD. ) ;
#41 = COORDINATED_UNIVERSAL_TIME_OFFSET ( 1, 0, .AHEAD. ) ;
#42 = ORIENTED_EDGE ( 'NONE', *, *, #165, .F. ) ;
#43 = SECURITY_CLASSIFICATION_LEVEL ( 'unclassified' ) ;
#44 = ORIENTED_EDGE ( 'NONE', *, *, #85, .T. ) ;
#45 = AXIS2_PLACEMENT_3D ( 'NONE', #161, #237, #69 ) ;
#46 = CC_DESIGN_DATE_AND_TIME_ASSIGNMENT ( #16, #94, ( #93 ) ) ;
#47 = PERSON_AND_ORGANIZATION_ROLE ( 'creator' ) ;
#48 = EDGE_LOOP ( 'NONE', ( #195 ) ) ;
#49 = PRODUCT_RELATED_PRODUCT_CATEGORY ( 'detail', '', ( #110 ) ) ;
#50 = DIRECTION ( 'NONE',  ( -4.256963957985708013E-31, -1.000000000000000000, -1.219242935835426410E-16 ) ) ;
#51 = AXIS2_PLACEMENT_3D ( 'NONE', #141, #87, #213 ) ;
#52 = FACE_OUTER_BOUND ( 'NONE', #83, .T. ) ;
#53 = CYLINDRICAL_SURFACE ( 'NONE', #207, 1.499999999999991784 ) ;
#54 = DIRECTION ( 'NONE',  ( -3.491481338843133355E-15, 1.224646799147353207E-16, -1.000000000000000000 ) ) ;
#55 = CIRCLE ( 'NONE', #243, 1.499999999999991784 ) ;
#56 = PLANE ( 'NONE',  #159 ) ;
#57 =( LENGTH_UNIT ( ) NAMED_UNIT ( * ) SI_UNIT ( .MILLI., .METRE. ) );
#58 = DATE_AND_TIME ( #37, #144 ) ;
#59 = APPROVAL ( #150, 'UNSPECIFIED' ) ;
#60 = APPROVAL_ROLE ( '' ) ;
#61 = APPROVAL_PERSON_ORGANIZATION ( #76, #59, #60 ) ;
#62 = VERTEX_POINT ( 'NONE', #222 ) ;
#63 = LOCAL_TIME ( 10, 16, 31.00000000000000000, #97 ) ;
#64 = COORDINATED_UNIVERSAL_TIME_OFFSET ( 1, 0, .AHEAD. ) ;
#65 = ADVANCED_FACE ( 'NONE', ( #105, #74 ), #185, .T. ) ;
#66 = EDGE_LOOP ( 'NONE', ( #28 ) ) ;
#67 = CONICAL_SURFACE ( 'NONE', #214, 1.199999999999993738, 0.7853981633974453924 ) ;
#68 = CYLINDRICAL_SURFACE ( 'NONE', #51, 0.6750000000000002665 ) ;
#69 = DIRECTION ( 'NONE',  ( -4.275831445896958607E-31, -1.000000000000000000, -1.224646799147353207E-16 ) ) ;
#70 = AXIS2_PLACEMENT_3D ( 'NONE', #226, #221, #135 ) ;
#71 = DIRECTION ( 'NONE',  ( -3.491481338843133355E-15, 1.224646799147353207E-16, -1.000000000000000000 ) ) ;
#72 = CARTESIAN_POINT ( 'NONE',  ( 1.326762908760390423E-13, 8.998558695971030697E-33, 38.00000000000000000 ) ) ;
#73 = CC_DESIGN_PERSON_AND_ORGANIZATION_ASSIGNMENT ( #6, #24, ( #112 ) ) ;
#74 = FACE_OUTER_BOUND ( 'NONE', #23, .T. ) ;
#75 = PERSON_AND_ORGANIZATION ( #136, #5 ) ;
#76 = PERSON_AND_ORGANIZATION ( #136, #5 ) ;
#77 = CARTESIAN_POINT ( 'NONE',  ( 1.158347148098602978E-14, -0.7431483474218611995, 3.317638090205028867 ) ) ;
#78 = DATE_AND_TIME ( #209, #63 ) ;
#79 = EDGE_LOOP ( 'NONE', ( #192 ) ) ;
#80 = LOCAL_TIME ( 10, 16, 31.00000000000000000, #40 ) ;
#81 = APPROVAL_STATUS ( 'not_yet_approved' ) ;
#82 = APPROVAL_DATE_TIME ( #78, #8 ) ;
#83 = EDGE_LOOP ( 'NONE', ( #155 ) ) ;
#84 = PERSON_AND_ORGANIZATION ( #136, #5 ) ;
#85 = EDGE_CURVE ( 'NONE', #187, #187, #211, .T. ) ;
#86 = PLANE ( 'NONE',  #117 ) ;
#87 = DIRECTION ( 'NONE',  ( 3.491481338843133355E-15, -1.219242935835426903E-16, 1.000000000000000000 ) ) ;
#88 = CARTESIAN_POINT ( 'NONE',  ( -3.494229594748583479E-30, 1.220202640692305338E-31, -1.000787131775523320E-15 ) ) ;
#89 = CLOSED_SHELL ( 'NONE', ( #20, #98, #109, #65, #225, #205 ) ) ;
#90 = FACE_OUTER_BOUND ( 'NONE', #157, .T. ) ;
#91 = CARTESIAN_POINT ( 'NONE',  ( 1.326762908760390423E-13, -4.653657836759941941E-15, 38.00000000000000000 ) ) ;
#92 = APPROVAL_ROLE ( '' ) ;
#93 = PRODUCT_DEFINITION ( 'UNKNOWN', '', #39, #102 ) ;
#94 = DATE_TIME_ROLE ( 'creation_date' ) ;
#95 = CARTESIAN_POINT ( 'NONE',  ( 1.326762908760390423E-13, 1.199999999999989297, 38.00000000000000000 ) ) ;
#96 = ADVANCED_FACE ( 'NONE', ( #33 ), #56, .F. ) ;
#97 = COORDINATED_UNIVERSAL_TIME_OFFSET ( 1, 0, .AHEAD. ) ;
#98 = ADVANCED_FACE ( 'NONE', ( #90, #164 ), #67, .T. ) ;
#99 = PERSON_AND_ORGANIZATION ( #136, #5 ) ;
#100 =( GEOMETRIC_REPRESENTATION_CONTEXT ( 3 ) GLOBAL_UNCERTAINTY_ASSIGNED_CONTEXT ( ( #193 ) ) GLOBAL_UNIT_ASSIGNED_CONTEXT ( ( #57, #1, #108 ) ) REPRESENTATION_CONTEXT ( 'NONE', 'WORKASPACE' ) );
#101 = SHAPE_DEFINITION_REPRESENTATION ( #173, #233 ) ;
#102 = DESIGN_CONTEXT ( 'detailed design', #2, 'design' ) ;
#103 = FACE_OUTER_BOUND ( 'NONE', #121, .T. ) ;
#104 = AXIS2_PLACEMENT_3D ( 'NONE', #72, #54, #200 ) ;
#105 = FACE_BOUND ( 'NONE', #79, .T. ) ;
#106 = DIRECTION ( 'NONE',  ( 0.0000000000000000000, -1.000000000000000000, 0.0000000000000000000 ) ) ;
#107 = PLANE ( 'NONE',  #104 ) ;
#108 =( NAMED_UNIT ( * ) SI_UNIT ( $, .STERADIAN. ) SOLID_ANGLE_UNIT ( ) );
#109 = ADVANCED_FACE ( 'NONE', ( #127 ), #107, .F. ) ;
#110 = PRODUCT ( '47927', '47927', '', ( #18 ) ) ;
#111 = COORDINATED_UNIVERSAL_TIME_OFFSET ( 1, 0, .AHEAD. ) ;
#112 = SECURITY_CLASSIFICATION ( '', '', #43 ) ;
#113 = CARTESIAN_POINT ( 'NONE',  ( 2.144554046978684910E-14, -1.499999999999992450, 6.142246911419154465 ) ) ;
#114 = CALENDAR_DATE ( 2021, 1, 11 ) ;
#115 = VERTEX_POINT ( 'NONE', #133 ) ;
#116 = APPROVAL_DATE_TIME ( #26, #59 ) ;
#117 = AXIS2_PLACEMENT_3D ( 'NONE', #160, #236, #12 ) ;
#118 = ORIENTED_EDGE ( 'NONE', *, *, #85, .F. ) ;
#119 = AXIS2_PLACEMENT_3D ( 'NONE', #13, #9, #36 ) ;
#120 = ORIENTED_EDGE ( 'NONE', *, *, #170, .F. ) ;
#121 = EDGE_LOOP ( 'NONE', ( #210 ) ) ;
#122 = EDGE_LOOP ( 'NONE', ( #232 ) ) ;
#123 = DIRECTION ( 'NONE',  ( 3.491481338843133355E-15, -1.219242935835426903E-16, 1.000000000000000000 ) ) ;
#124 = CIRCLE ( 'NONE', #134, 0.6750000000000002665 ) ;
#125 = FACE_OUTER_BOUND ( 'NONE', #7, .T. ) ;
#126 = EDGE_CURVE ( 'NONE', #115, #115, #186, .T. ) ;
#127 = FACE_OUTER_BOUND ( 'NONE', #212, .T. ) ;
#128 = FACE_OUTER_BOUND ( 'NONE', #171, .T. ) ;
#129 = CC_DESIGN_APPROVAL ( #151, ( #93 ) ) ;
#130 = EDGE_CURVE ( 'NONE', #149, #149, #55, .T. ) ;
#131 = DIRECTION ( 'NONE',  ( 0.0000000000000000000, -1.000000000000000000, 0.0000000000000000000 ) ) ;
#132 = VERTEX_POINT ( 'NONE', #77 ) ;
#133 = CARTESIAN_POINT ( 'NONE',  ( 9.776147748760771817E-15, -0.6750000000000004885, 2.799999999999999378 ) ) ;
#134 = AXIS2_PLACEMENT_3D ( 'NONE', #88, #123, #50 ) ;
#135 = DIRECTION ( 'NONE',  ( 1.000000000000000000, 0.0000000000000000000, 0.0000000000000000000 ) ) ;
#136 = PERSON ( 'UNSPECIFIED', 'UNSPECIFIED', 'UNSPECIFIED', ('UNSPECIFIED'), ('UNSPECIFIED'), ('UNSPECIFIED') ) ;
#137 = CARTESIAN_POINT ( 'NONE',  ( 9.776147748760771817E-15, -4.336808689942017736E-16, 2.799999999999999378 ) ) ;
#138 = CC_DESIGN_PERSON_AND_ORGANIZATION_ASSIGNMENT ( #168, #206, ( #110 ) ) ;
#139 = APPROVAL_ROLE ( '' ) ;
#140 = EDGE_LOOP ( 'NONE', ( #208 ) ) ;
#141 = CARTESIAN_POINT ( 'NONE',  ( 0.0000000000000000000, 0.0000000000000000000, 0.0000000000000000000 ) ) ;
#142 = FACE_OUTER_BOUND ( 'NONE', #48, .T. ) ;
#143 = CC_DESIGN_APPROVAL ( #8, ( #112 ) ) ;
#144 = LOCAL_TIME ( 10, 16, 31.00000000000000000, #41 ) ;
#145 = DIRECTION ( 'NONE',  ( 0.0000000000000000000, 1.000000000000000000, 0.0000000000000000000 ) ) ;
#146 = FACE_OUTER_BOUND ( 'NONE', #122, .T. ) ;
#147 = DIRECTION ( 'NONE',  ( 3.491481338843133355E-15, -1.219242935835426903E-16, 1.000000000000000000 ) ) ;
#148 = VERTEX_POINT ( 'NONE', #152 ) ;
#149 = VERTEX_POINT ( 'NONE', #113 ) ;
#150 = APPROVAL_STATUS ( 'not_yet_approved' ) ;
#151 = APPROVAL ( #15, 'UNSPECIFIED' ) ;
#152 = CARTESIAN_POINT ( 'NONE',  ( 9.776147748760771817E-15, -0.6750000000000004885, 2.799999999999999378 ) ) ;
#153 = DIRECTION ( 'NONE',  ( 3.491481338843133355E-15, -1.219242935835426903E-16, 1.000000000000000000 ) ) ;
#154 = EDGE_CURVE ( 'NONE', #132, #132, #197, .T. ) ;
#155 = ORIENTED_EDGE ( 'NONE', *, *, #126, .T. ) ;
#156 = CC_DESIGN_APPROVAL ( #59, ( #39 ) ) ;
#157 = EDGE_LOOP ( 'NONE', ( #120 ) ) ;
#158 = CC_DESIGN_PERSON_AND_ORGANIZATION_ASSIGNMENT ( #99, #47, ( #39 ) ) ;
#159 = AXIS2_PLACEMENT_3D ( 'NONE', #183, #14, #218 ) ;
#160 = CARTESIAN_POINT ( 'NONE',  ( 9.776147748760773395E-15, 1.124819836996384858E-32, 2.799999999999999822 ) ) ;
#161 = CARTESIAN_POINT ( 'NONE',  ( 9.776147748760773395E-15, 1.124819836996384858E-32, 2.799999999999999822 ) ) ;
#162 = CARTESIAN_POINT ( 'NONE',  ( 9.776147748760771817E-15, -3.413880220339194539E-16, 2.799999999999999378 ) ) ;
#163 = TOROIDAL_SURFACE ( 'NONE', #238, 2.675000000000000711, 2.000000000000000000 ) ;
#164 = FACE_BOUND ( 'NONE', #191, .T. ) ;
#165 = EDGE_CURVE ( 'NONE', #148, #148, #234, .T. ) ;
#166 = APPLICATION_PROTOCOL_DEFINITION ( 'international standard', 'config_control_design', 1994, #216 ) ;
#167 = DIRECTION ( 'NONE',  ( -4.313766726762734541E-31, -1.000000000000000000, -1.219242935835426903E-16 ) ) ;
#168 = PERSON_AND_ORGANIZATION ( #136, #5 ) ;
#169 = PERSON_AND_ORGANIZATION_ROLE ( 'creator' ) ;
#170 = EDGE_CURVE ( 'NONE', #224, #224, #223, .T. ) ;
#171 = EDGE_LOOP ( 'NONE', ( #27 ) ) ;
#172 = ADVANCED_FACE ( 'NONE', ( #52 ), #86, .T. ) ;
#173 = PRODUCT_DEFINITION_SHAPE ( 'NONE', 'NONE',  #93 ) ;
#174 = CARTESIAN_POINT ( 'NONE',  ( 1.158347148098602978E-14, -4.045006805141017776E-16, 3.317638090205028867 ) ) ;
#175 = ADVANCED_FACE ( 'NONE', ( #146, #128 ), #68, .T. ) ;
#176 = DIRECTION ( 'NONE',  ( -3.491481338843133355E-15, 1.224646799147353207E-16, -1.000000000000000000 ) ) ;
#177 = MANIFOLD_SOLID_BREP ( 'Corps-Déplacer/Copier1[2]', #181 ) ;
#178 = DIRECTION ( 'NONE',  ( 0.0000000000000000000, -1.000000000000000000, 0.0000000000000000000 ) ) ;
#179 = DIRECTION ( 'NONE',  ( 3.491481338843133355E-15, -1.219242935835426903E-16, 1.000000000000000000 ) ) ;
#180 = AXIS2_PLACEMENT_3D ( 'NONE', #162, #10, #201 ) ;
#181 = CLOSED_SHELL ( 'NONE', ( #172, #175, #96 ) ) ;
#182 = EDGE_CURVE ( 'NONE', #62, #62, #124, .T. ) ;
#183 = CARTESIAN_POINT ( 'NONE',  ( -1.282754905350004587E-30, 4.499298539707956128E-32, -3.673956068672651857E-16 ) ) ;
#184 = CALENDAR_DATE ( 2021, 1, 11 ) ;
#185 = CONICAL_SURFACE ( 'NONE', #196, 2.499999999999992895, 0.2617993877991429685 ) ;
#186 = CIRCLE ( 'NONE', #17, 0.6750000000000001554 ) ;
#187 = VERTEX_POINT ( 'NONE', #95 ) ;
#188 = PERSON_AND_ORGANIZATION ( #136, #5 ) ;
#189 = DATE_TIME_ROLE ( 'classification_date' ) ;
#190 = PERSON_AND_ORGANIZATION_ROLE ( 'design_supplier' ) ;
#191 = EDGE_LOOP ( 'NONE', ( #44 ) ) ;
#192 = ORIENTED_EDGE ( 'NONE', *, *, #154, .T. ) ;
#193 = UNCERTAINTY_MEASURE_WITH_UNIT (LENGTH_MEASURE( 1.000000000000000082E-05 ), #57, 'distance_accuracy_value', 'NONE');
#194 = ORIENTED_EDGE ( 'NONE', *, *, #182, .F. ) ;
#195 = ORIENTED_EDGE ( 'NONE', *, *, #165, .T. ) ;
#196 = AXIS2_PLACEMENT_3D ( 'NONE', #202, #219, #131 ) ;
#197 = CIRCLE ( 'NONE', #30, 0.7431483474218607554 ) ;
#198 = PLANE ( 'NONE',  #45 ) ;
#199 = DIRECTION ( 'NONE',  ( -3.491481338843133355E-15, 1.219242935835426903E-16, -1.000000000000000000 ) ) ;
#200 = DIRECTION ( 'NONE',  ( 4.275831445896958607E-31, 1.000000000000000000, 1.224646799147353207E-16 ) ) ;
#201 = DIRECTION ( 'NONE',  ( 0.0000000000000000000, -1.000000000000000000, 0.0000000000000000000 ) ) ;
#202 = CARTESIAN_POINT ( 'NONE',  ( 3.447592622002838005E-14, -1.203916774021214951E-15, 9.874297718988131578 ) ) ;
#203 = LOCAL_TIME ( 10, 16, 31.00000000000000000, #64 ) ;
#204 = APPLICATION_PROTOCOL_DEFINITION ( 'international standard', 'config_control_design', 1994, #2 ) ;
#205 = ADVANCED_FACE ( 'NONE', ( #125 ), #198, .F. ) ;
#206 = PERSON_AND_ORGANIZATION_ROLE ( 'design_owner' ) ;
#207 = AXIS2_PLACEMENT_3D ( 'NONE', #239, #176, #35 ) ;
#208 = ORIENTED_EDGE ( 'NONE', *, *, #170, .T. ) ;
#209 = CALENDAR_DATE ( 2021, 1, 11 ) ;
#210 = ORIENTED_EDGE ( 'NONE', *, *, #130, .F. ) ;
#211 = CIRCLE ( 'NONE', #38, 1.199999999999993738 ) ;
#212 = EDGE_LOOP ( 'NONE', ( #118 ) ) ;
#213 = DIRECTION ( 'NONE',  ( -4.256963957985708013E-31, -1.000000000000000000, -1.219242935835426656E-16 ) ) ;
#214 = AXIS2_PLACEMENT_3D ( 'NONE', #217, #240, #31 ) ;
#215 = DIRECTION ( 'NONE',  ( 0.0000000000000000000, -1.000000000000000000, 0.0000000000000000000 ) ) ;
#216 = APPLICATION_CONTEXT ( 'configuration controlled 3d designs of mechanical parts and assemblies' ) ;
#217 = CARTESIAN_POINT ( 'NONE',  ( 1.326762908760390423E-13, -4.653657836759941941E-15, 38.00000000000000000 ) ) ;
#218 = DIRECTION ( 'NONE',  ( -4.275831445896958607E-31, -1.000000000000000000, -1.224646799147353207E-16 ) ) ;
#219 = DIRECTION ( 'NONE',  ( 3.491481338843133355E-15, -1.219242935835426903E-16, 1.000000000000000000 ) ) ;
#220 = CARTESIAN_POINT ( 'NONE',  ( 1.316288464743861212E-13, 1.499999999999989120, 37.69999999999999574 ) ) ;
#221 = DIRECTION ( 'NONE',  ( 0.0000000000000000000, 0.0000000000000000000, 1.000000000000000000 ) ) ;
#222 = CARTESIAN_POINT ( 'NONE',  ( -3.781574661912618459E-30, -0.6750000000000002665, -1.083086029944414631E-15 ) ) ;
#223 = CIRCLE ( 'NONE', #119, 1.499999999999993783 ) ;
#224 = VERTEX_POINT ( 'NONE', #220 ) ;
#225 = ADVANCED_FACE ( 'NONE', ( #142, #3 ), #163, .F. ) ;
#226 = CARTESIAN_POINT ( 'NONE',  ( 0.0000000000000000000, 0.0000000000000000000, 0.0000000000000000000 ) ) ;
#227 = APPROVAL_PERSON_ORGANIZATION ( #84, #8, #139 ) ;
#228 = CC_DESIGN_DATE_AND_TIME_ASSIGNMENT ( #22, #189, ( #112 ) ) ;
#229 = PERSON_AND_ORGANIZATION ( #136, #5 ) ;
#230 = ORIENTED_EDGE ( 'NONE', *, *, #130, .T. ) ;
#231 = CALENDAR_DATE ( 2021, 1, 11 ) ;
#232 = ORIENTED_EDGE ( 'NONE', *, *, #182, .T. ) ;
#233 = ADVANCED_BREP_SHAPE_REPRESENTATION ( '47927', ( #19, #177, #70 ), #100 ) ;
#234 = CIRCLE ( 'NONE', #180, 0.6750000000000001554 ) ;
#235 = EDGE_LOOP ( 'NONE', ( #194 ) ) ;
#236 = DIRECTION ( 'NONE',  ( 3.491481338843133355E-15, -1.224646799147353207E-16, 1.000000000000000000 ) ) ;
#237 = DIRECTION ( 'NONE',  ( 3.491481338843133355E-15, -1.224646799147353207E-16, 1.000000000000000000 ) ) ;
#238 = AXIS2_PLACEMENT_3D ( 'NONE', #137, #153, #167 ) ;
#239 = CARTESIAN_POINT ( 'NONE',  ( 0.0000000000000000000, 0.0000000000000000000, 0.0000000000000000000 ) ) ;
#240 = DIRECTION ( 'NONE',  ( -3.491481338843133355E-15, 1.224646799147353207E-16, -1.000000000000000000 ) ) ;
#241 = CARTESIAN_POINT ( 'NONE',  ( 2.144554046978684910E-14, -7.488891156904773171E-16, 6.142246911419154465 ) ) ;
#242 = APPROVAL_DATE_TIME ( #58, #151 ) ;
#243 = AXIS2_PLACEMENT_3D ( 'NONE', #241, #199, #178 ) ;
ENDSEC;
END-ISO-10303-21;
