ISO-10303-21;
HEADER;
FILE_DESCRIPTION (( 'STEP AP203' ),
    '1' );
FILE_NAME ('47926.step',
    '2021-11-01T09:16:30',
    ( '' ),
    ( '' ),
    'SwSTEP 2.0',
    'SolidWorks 2019',
    '' );
FILE_SCHEMA (( 'CONFIG_CONTROL_DESIGN' ));
ENDSEC;

DATA;
#1 = LOCAL_TIME ( 10, 16, 30.00000000000000000, #69 ) ;
#2 = CC_DESIGN_APPROVAL ( #100, ( #145 ) ) ;
#3 = DIRECTION ( 'NONE',  ( 4.275831445896958607E-31, 1.000000000000000000, 1.224646799147353207E-16 ) ) ;
#4 = DIRECTION ( 'NONE',  ( -3.491481338843133355E-15, 1.224646799147353207E-16, -1.000000000000000000 ) ) ;
#5 = FACE_OUTER_BOUND ( 'NONE', #85, .T. ) ;
#6 = AXIS2_PLACEMENT_3D ( 'NONE', #118, #191, #229 ) ;
#7 = DIRECTION ( 'NONE',  ( 3.491481338843133355E-15, -1.224646799147353207E-16, 1.000000000000000000 ) ) ;
#8 = APPLICATION_CONTEXT ( 'configuration controlled 3d designs of mechanical parts and assemblies' ) ;
#9 = FACE_OUTER_BOUND ( 'NONE', #197, .T. ) ;
#10 = ORIENTED_EDGE ( 'NONE', *, *, #165, .F. ) ;
#11 = COORDINATED_UNIVERSAL_TIME_OFFSET ( 1, 0, .AHEAD. ) ;
#12 = CONICAL_SURFACE ( 'NONE', #128, 2.499999999999992895, 0.2617993877991429130 ) ;
#13 = EDGE_LOOP ( 'NONE', ( #153 ) ) ;
#14 = CARTESIAN_POINT ( 'NONE',  ( 1.088517521321740310E-14, -0.6931483474218610441, 3.117638090205028689 ) ) ;
#15 = DIRECTION ( 'NONE',  ( 0.0000000000000000000, -1.000000000000000000, 0.0000000000000000000 ) ) ;
#16 =( LENGTH_UNIT ( ) NAMED_UNIT ( * ) SI_UNIT ( .MILLI., .METRE. ) );
#17 = AXIS2_PLACEMENT_3D ( 'NONE', #155, #240, #236 ) ;
#18 = CARTESIAN_POINT ( 'NONE',  ( -3.739005022332761607E-30, -0.6250000000000001110, -1.070893600586060421E-15 ) ) ;
#19 = CLOSED_SHELL ( 'NONE', ( #170, #33, #190 ) ) ;
#20 = DIRECTION ( 'NONE',  ( 0.0000000000000000000, 1.000000000000000000, 0.0000000000000000000 ) ) ;
#21 = DIRECTION ( 'NONE',  ( -4.275831445896958607E-31, -1.000000000000000000, -1.224646799147353207E-16 ) ) ;
#22 = CARTESIAN_POINT ( 'NONE',  ( 9.077851480992146724E-15, 1.124819836996384995E-32, 2.600000000000000089 ) ) ;
#23 = DIRECTION ( 'NONE',  ( 3.491481338843133355E-15, -1.224646799147353207E-16, 1.000000000000000000 ) ) ;
#24 = CC_DESIGN_PERSON_AND_ORGANIZATION_ASSIGNMENT ( #185, #123, ( #145 ) ) ;
#25 = APPROVAL_DATE_TIME ( #180, #107 ) ;
#26 = VERTEX_POINT ( 'NONE', #14 ) ;
#27 = ORIENTED_EDGE ( 'NONE', *, *, #158, .F. ) ;
#28 = CARTESIAN_POINT ( 'NONE',  ( 2.139876348953030197E-14, -1.499999999999992228, 6.128849451797604431 ) ) ;
#29 = CIRCLE ( 'NONE', #210, 1.199999999999993738 ) ;
#30 = DATE_AND_TIME ( #41, #1 ) ;
#31 = COORDINATED_UNIVERSAL_TIME_OFFSET ( 1, 0, .AHEAD. ) ;
#32 = CIRCLE ( 'NONE', #72, 0.6250000000000000000 ) ;
#33 = ADVANCED_FACE ( 'NONE', ( #238, #86 ), #160, .T. ) ;
#34 = CARTESIAN_POINT ( 'NONE',  ( 3.442914923977183608E-14, -1.202283298221043403E-15, 9.860900259366582432 ) ) ;
#35 = VERTEX_POINT ( 'NONE', #114 ) ;
#36 = CC_DESIGN_APPROVAL ( #107, ( #175 ) ) ;
#37 = FACE_OUTER_BOUND ( 'NONE', #68, .T. ) ;
#38 = FACE_OUTER_BOUND ( 'NONE', #49, .T. ) ;
#39 = UNCERTAINTY_MEASURE_WITH_UNIT (LENGTH_MEASURE( 1.000000000000000082E-05 ), #16, 'distance_accuracy_value', 'NONE');
#40 = CARTESIAN_POINT ( 'NONE',  ( 1.326762908760390423E-13, -4.653657836759941941E-15, 38.00000000000000000 ) ) ;
#41 = CALENDAR_DATE ( 2021, 1, 11 ) ;
#42 = EDGE_LOOP ( 'NONE', ( #200 ) ) ;
#43 = DATE_TIME_ROLE ( 'classification_date' ) ;
#44 = DIRECTION ( 'NONE',  ( 3.491481338843133355E-15, -1.219242935835426903E-16, 1.000000000000000000 ) ) ;
#45 = PERSON_AND_ORGANIZATION_ROLE ( 'design_owner' ) ;
#46 = APPROVAL_ROLE ( '' ) ;
#47 = AXIS2_PLACEMENT_3D ( 'NONE', #148, #4, #3 ) ;
#48 =( NAMED_UNIT ( * ) PLANE_ANGLE_UNIT ( ) SI_UNIT ( $, .RADIAN. ) );
#49 = EDGE_LOOP ( 'NONE', ( #27 ) ) ;
#50 = APPROVAL_ROLE ( '' ) ;
#51 = LOCAL_TIME ( 10, 16, 30.00000000000000000, #102 ) ;
#52 = CC_DESIGN_PERSON_AND_ORGANIZATION_ASSIGNMENT ( #141, #125, ( #145 ) ) ;
#53 = FACE_OUTER_BOUND ( 'NONE', #79, .T. ) ;
#54 = CYLINDRICAL_SURFACE ( 'NONE', #47, 1.499999999999991562 ) ;
#55 = AXIS2_PLACEMENT_3D ( 'NONE', #195, #152, #234 ) ;
#56 = DIRECTION ( 'NONE',  ( 0.0000000000000000000, -1.000000000000000000, 0.0000000000000000000 ) ) ;
#57 = DIRECTION ( 'NONE',  ( 0.0000000000000000000, -1.000000000000000000, 0.0000000000000000000 ) ) ;
#58 = DIRECTION ( 'NONE',  ( 0.0000000000000000000, 1.000000000000000000, 0.0000000000000000000 ) ) ;
#59 = DIRECTION ( 'NONE',  ( 0.0000000000000000000, 0.0000000000000000000, 1.000000000000000000 ) ) ;
#60 = CC_DESIGN_PERSON_AND_ORGANIZATION_ASSIGNMENT ( #87, #67, ( #175 ) ) ;
#61 = CARTESIAN_POINT ( 'NONE',  ( 9.077851480992145146E-15, -3.170031633172109355E-16, 2.599999999999999645 ) ) ;
#62 =( NAMED_UNIT ( * ) SI_UNIT ( $, .STERADIAN. ) SOLID_ANGLE_UNIT ( ) );
#63 = ORIENTED_EDGE ( 'NONE', *, *, #71, .F. ) ;
#64 = CARTESIAN_POINT ( 'NONE',  ( 0.0000000000000000000, 0.0000000000000000000, 0.0000000000000000000 ) ) ;
#65 = DIRECTION ( 'NONE',  ( 3.491481338843133355E-15, -1.219242935835426903E-16, 1.000000000000000000 ) ) ;
#66 = LOCAL_TIME ( 10, 16, 30.00000000000000000, #31 ) ;
#67 = PERSON_AND_ORGANIZATION_ROLE ( 'creator' ) ;
#68 = EDGE_LOOP ( 'NONE', ( #218 ) ) ;
#69 = COORDINATED_UNIVERSAL_TIME_OFFSET ( 1, 0, .AHEAD. ) ;
#70 = CLOSED_SHELL ( 'NONE', ( #164, #111, #231, #219, #117, #208 ) ) ;
#71 = EDGE_CURVE ( 'NONE', #146, #146, #98, .T. ) ;
#72 = AXIS2_PLACEMENT_3D ( 'NONE', #78, #194, #57 ) ;
#73 = FACE_OUTER_BOUND ( 'NONE', #140, .T. ) ;
#74 = CARTESIAN_POINT ( 'NONE',  ( -1.282754905350004587E-30, 4.499298539707956128E-32, -3.673956068672651857E-16 ) ) ;
#75 = FACE_OUTER_BOUND ( 'NONE', #135, .T. ) ;
#76 = EDGE_CURVE ( 'NONE', #173, #173, #186, .T. ) ;
#77 = FACE_BOUND ( 'NONE', #184, .T. ) ;
#78 = CARTESIAN_POINT ( 'NONE',  ( 9.077851480992145146E-15, -3.170031633172109355E-16, 2.599999999999999645 ) ) ;
#79 = EDGE_LOOP ( 'NONE', ( #124 ) ) ;
#80 = PERSON_AND_ORGANIZATION_ROLE ( 'classification_officer' ) ;
#81 = PRODUCT_RELATED_PRODUCT_CATEGORY ( 'detail', '', ( #96 ) ) ;
#82 = ORIENTED_EDGE ( 'NONE', *, *, #206, .T. ) ;
#83 = AXIS2_PLACEMENT_3D ( 'NONE', #171, #193, #58 ) ;
#84 = DIRECTION ( 'NONE',  ( 1.000000000000000000, 0.0000000000000000000, 0.0000000000000000000 ) ) ;
#85 = EDGE_LOOP ( 'NONE', ( #242 ) ) ;
#86 = FACE_OUTER_BOUND ( 'NONE', #157, .T. ) ;
#87 = PERSON_AND_ORGANIZATION ( #196, #228 ) ;
#88 = EDGE_LOOP ( 'NONE', ( #199 ) ) ;
#89 = CIRCLE ( 'NONE', #207, 0.6931483474218606000 ) ;
#90 = APPLICATION_PROTOCOL_DEFINITION ( 'international standard', 'config_control_design', 1994, #227 ) ;
#91 = APPROVAL_DATE_TIME ( #225, #112 ) ;
#92 = EDGE_CURVE ( 'NONE', #93, #93, #174, .T. ) ;
#93 = VERTEX_POINT ( 'NONE', #209 ) ;
#94 = APPROVAL_PERSON_ORGANIZATION ( #106, #107, #243 ) ;
#95 = FACE_OUTER_BOUND ( 'NONE', #88, .T. ) ;
#96 = PRODUCT ( '47926', '47926', '', ( #223 ) ) ;
#97 = CARTESIAN_POINT ( 'NONE',  ( 9.077851480992145146E-15, -0.6250000000000003331, 2.599999999999999645 ) ) ;
#98 = CIRCLE ( 'NONE', #241, 0.6250000000000000000 ) ;
#99 = FACE_BOUND ( 'NONE', #179, .T. ) ;
#100 = APPROVAL ( #104, 'UNSPECIFIED' ) ;
#101 = PERSON_AND_ORGANIZATION ( #196, #228 ) ;
#102 = COORDINATED_UNIVERSAL_TIME_OFFSET ( 1, 0, .AHEAD. ) ;
#103 = SECURITY_CLASSIFICATION ( '', '', #198 ) ;
#104 = APPROVAL_STATUS ( 'not_yet_approved' ) ;
#105 = EDGE_LOOP ( 'NONE', ( #177 ) ) ;
#106 = PERSON_AND_ORGANIZATION ( #196, #228 ) ;
#107 = APPROVAL ( #202, 'UNSPECIFIED' ) ;
#108 = PRODUCT_DEFINITION_SHAPE ( 'NONE', 'NONE',  #175 ) ;
#109 = AXIS2_PLACEMENT_3D ( 'NONE', #150, #232, #233 ) ;
#110 = ADVANCED_BREP_SHAPE_REPRESENTATION ( '47926', ( #178, #187, #205 ), #188 ) ;
#111 = ADVANCED_FACE ( 'NONE', ( #53, #77 ), #131, .T. ) ;
#112 = APPROVAL ( #204, 'UNSPECIFIED' ) ;
#113 = DIRECTION ( 'NONE',  ( 0.0000000000000000000, -1.000000000000000000, 0.0000000000000000000 ) ) ;
#114 = CARTESIAN_POINT ( 'NONE',  ( 9.077851480992145146E-15, -0.6250000000000003331, 2.599999999999999645 ) ) ;
#115 = CC_DESIGN_APPROVAL ( #112, ( #103 ) ) ;
#116 = DIRECTION ( 'NONE',  ( -3.491481338843133355E-15, 1.219242935835426903E-16, -1.000000000000000000 ) ) ;
#117 = ADVANCED_FACE ( 'NONE', ( #75, #147 ), #161, .F. ) ;
#118 = CARTESIAN_POINT ( 'NONE',  ( 1.326762908760390423E-13, 8.998558695971030697E-33, 38.00000000000000000 ) ) ;
#119 = PLANE ( 'NONE',  #168 ) ;
#120 = DESIGN_CONTEXT ( 'detailed design', #8, 'design' ) ;
#121 = ORIENTED_EDGE ( 'NONE', *, *, #76, .F. ) ;
#122 = EDGE_CURVE ( 'NONE', #35, #35, #32, .T. ) ;
#123 = PERSON_AND_ORGANIZATION_ROLE ( 'design_supplier' ) ;
#124 = ORIENTED_EDGE ( 'NONE', *, *, #92, .F. ) ;
#125 = PERSON_AND_ORGANIZATION_ROLE ( 'creator' ) ;
#126 = CALENDAR_DATE ( 2021, 1, 11 ) ;
#127 = AXIS2_PLACEMENT_3D ( 'NONE', #216, #169, #20 ) ;
#128 = AXIS2_PLACEMENT_3D ( 'NONE', #34, #132, #56 ) ;
#129 = PLANE ( 'NONE',  #6 ) ;
#130 = CARTESIAN_POINT ( 'NONE',  ( 2.139876348953030197E-14, -7.472556398903056706E-16, 6.128849451797604431 ) ) ;
#131 = CONICAL_SURFACE ( 'NONE', #83, 1.199999999999993738, 0.7853981633974453924 ) ;
#132 = DIRECTION ( 'NONE',  ( 3.491481338843133355E-15, -1.219242935835426903E-16, 1.000000000000000000 ) ) ;
#133 = PLANE ( 'NONE',  #189 ) ;
#134 = DIRECTION ( 'NONE',  ( 3.491481338843133355E-15, -1.219242935835426903E-16, 1.000000000000000000 ) ) ;
#135 = EDGE_LOOP ( 'NONE', ( #142 ) ) ;
#136 = CALENDAR_DATE ( 2021, 1, 11 ) ;
#137 = CARTESIAN_POINT ( 'NONE',  ( -3.472944774958654703E-30, 1.212769874009382440E-31, -9.946909170963462151E-16 ) ) ;
#138 = PERSON_AND_ORGANIZATION ( #196, #228 ) ;
#139 = APPROVAL_PERSON_ORGANIZATION ( #143, #112, #50 ) ;
#140 = EDGE_LOOP ( 'NONE', ( #121 ) ) ;
#141 = PERSON_AND_ORGANIZATION ( #196, #228 ) ;
#142 = ORIENTED_EDGE ( 'NONE', *, *, #122, .T. ) ;
#143 = PERSON_AND_ORGANIZATION ( #196, #228 ) ;
#144 = CC_DESIGN_SECURITY_CLASSIFICATION ( #103, ( #145 ) ) ;
#145 = PRODUCT_DEFINITION_FORMATION_WITH_SPECIFIED_SOURCE ( 'ANY', '', #96, .NOT_KNOWN. ) ;
#146 = VERTEX_POINT ( 'NONE', #97 ) ;
#147 = FACE_OUTER_BOUND ( 'NONE', #42, .T. ) ;
#148 = CARTESIAN_POINT ( 'NONE',  ( 0.0000000000000000000, 0.0000000000000000000, 0.0000000000000000000 ) ) ;
#149 = AXIS2_PLACEMENT_3D ( 'NONE', #137, #44, #162 ) ;
#150 = CARTESIAN_POINT ( 'NONE',  ( 9.077851480992145146E-15, -4.336808689942017736E-16, 2.599999999999999645 ) ) ;
#151 = CC_DESIGN_PERSON_AND_ORGANIZATION_ASSIGNMENT ( #101, #80, ( #103 ) ) ;
#152 = DIRECTION ( 'NONE',  ( 3.491481338843133355E-15, -1.224646799147353207E-16, 1.000000000000000000 ) ) ;
#153 = ORIENTED_EDGE ( 'NONE', *, *, #76, .T. ) ;
#154 = COORDINATED_UNIVERSAL_TIME_OFFSET ( 1, 0, .AHEAD. ) ;
#155 = CARTESIAN_POINT ( 'NONE',  ( 0.0000000000000000000, 0.0000000000000000000, 0.0000000000000000000 ) ) ;
#156 = SHAPE_DEFINITION_REPRESENTATION ( #108, #110 ) ;
#157 = EDGE_LOOP ( 'NONE', ( #63 ) ) ;
#158 = EDGE_CURVE ( 'NONE', #235, #235, #29, .T. ) ;
#159 = APPLICATION_PROTOCOL_DEFINITION ( 'international standard', 'config_control_design', 1994, #8 ) ;
#160 = CYLINDRICAL_SURFACE ( 'NONE', #17, 0.6250000000000001110 ) ;
#161 = TOROIDAL_SURFACE ( 'NONE', #109, 2.625000000000000444, 2.000000000000000000 ) ;
#162 = DIRECTION ( 'NONE',  ( -4.256963957985706261E-31, -1.000000000000000000, -1.219242935835427396E-16 ) ) ;
#163 = VERTEX_POINT ( 'NONE', #28 ) ;
#164 = ADVANCED_FACE ( 'NONE', ( #95, #9 ), #54, .T. ) ;
#165 = EDGE_CURVE ( 'NONE', #163, #163, #166, .T. ) ;
#166 = CIRCLE ( 'NONE', #222, 1.499999999999991562 ) ;
#167 = CC_DESIGN_PERSON_AND_ORGANIZATION_ASSIGNMENT ( #138, #45, ( #96 ) ) ;
#168 = AXIS2_PLACEMENT_3D ( 'NONE', #74, #23, #21 ) ;
#169 = DIRECTION ( 'NONE',  ( -3.491481338843133355E-15, 1.224646799147353207E-16, -1.000000000000000000 ) ) ;
#170 = ADVANCED_FACE ( 'NONE', ( #37 ), #133, .T. ) ;
#171 = CARTESIAN_POINT ( 'NONE',  ( 1.326762908760390423E-13, -4.653657836759941941E-15, 38.00000000000000000 ) ) ;
#172 = CARTESIAN_POINT ( 'NONE',  ( 1.088517521321740310E-14, -3.801158217973932592E-16, 3.117638090205028689 ) ) ;
#173 = VERTEX_POINT ( 'NONE', #18 ) ;
#174 = CIRCLE ( 'NONE', #127, 1.499999999999993783 ) ;
#175 = PRODUCT_DEFINITION ( 'UNKNOWN', '', #145, #120 ) ;
#176 = FACE_OUTER_BOUND ( 'NONE', #105, .T. ) ;
#177 = ORIENTED_EDGE ( 'NONE', *, *, #165, .T. ) ;
#178 = MANIFOLD_SOLID_BREP ( 'Corps-Déplacer/Copier1[1]', #70 ) ;
#179 = EDGE_LOOP ( 'NONE', ( #82 ) ) ;
#180 = DATE_AND_TIME ( #183, #51 ) ;
#181 = DATE_AND_TIME ( #237, #226 ) ;
#182 = ORIENTED_EDGE ( 'NONE', *, *, #158, .T. ) ;
#183 = CALENDAR_DATE ( 2021, 1, 11 ) ;
#184 = EDGE_LOOP ( 'NONE', ( #182 ) ) ;
#185 = PERSON_AND_ORGANIZATION ( #196, #228 ) ;
#186 = CIRCLE ( 'NONE', #149, 0.6250000000000001110 ) ;
#187 = MANIFOLD_SOLID_BREP ( 'Corps-Déplacer/Copier1[2]', #19 ) ;
#188 =( GEOMETRIC_REPRESENTATION_CONTEXT ( 3 ) GLOBAL_UNCERTAINTY_ASSIGNED_CONTEXT ( ( #39 ) ) GLOBAL_UNIT_ASSIGNED_CONTEXT ( ( #16, #48, #62 ) ) REPRESENTATION_CONTEXT ( 'NONE', 'WORKASPACE' ) );
#189 = AXIS2_PLACEMENT_3D ( 'NONE', #22, #7, #213 ) ;
#190 = ADVANCED_FACE ( 'NONE', ( #73 ), #119, .F. ) ;
#191 = DIRECTION ( 'NONE',  ( -3.491481338843133355E-15, 1.224646799147353207E-16, -1.000000000000000000 ) ) ;
#192 = PLANE ( 'NONE',  #55 ) ;
#193 = DIRECTION ( 'NONE',  ( -3.491481338843133355E-15, 1.224646799147353207E-16, -1.000000000000000000 ) ) ;
#194 = DIRECTION ( 'NONE',  ( 3.491481338843133355E-15, -1.219242935835426903E-16, 1.000000000000000000 ) ) ;
#195 = CARTESIAN_POINT ( 'NONE',  ( 9.077851480992146724E-15, 1.124819836996384995E-32, 2.600000000000000089 ) ) ;
#196 = PERSON ( 'UNSPECIFIED', 'UNSPECIFIED', 'UNSPECIFIED', ('UNSPECIFIED'), ('UNSPECIFIED'), ('UNSPECIFIED') ) ;
#197 = EDGE_LOOP ( 'NONE', ( #10 ) ) ;
#198 = SECURITY_CLASSIFICATION_LEVEL ( 'unclassified' ) ;
#199 = ORIENTED_EDGE ( 'NONE', *, *, #92, .T. ) ;
#200 = ORIENTED_EDGE ( 'NONE', *, *, #206, .F. ) ;
#201 = LOCAL_TIME ( 10, 16, 30.00000000000000000, #154 ) ;
#202 = APPROVAL_STATUS ( 'not_yet_approved' ) ;
#203 = PERSON_AND_ORGANIZATION ( #196, #228 ) ;
#204 = APPROVAL_STATUS ( 'not_yet_approved' ) ;
#205 = AXIS2_PLACEMENT_3D ( 'NONE', #64, #59, #84 ) ;
#206 = EDGE_CURVE ( 'NONE', #26, #26, #89, .T. ) ;
#207 = AXIS2_PLACEMENT_3D ( 'NONE', #172, #134, #113 ) ;
#208 = ADVANCED_FACE ( 'NONE', ( #5 ), #192, .F. ) ;
#209 = CARTESIAN_POINT ( 'NONE',  ( 1.316288464743861212E-13, 1.499999999999989120, 37.69999999999999574 ) ) ;
#210 = AXIS2_PLACEMENT_3D ( 'NONE', #40, #230, #212 ) ;
#211 = DIRECTION ( 'NONE',  ( 0.0000000000000000000, -1.000000000000000000, 0.0000000000000000000 ) ) ;
#212 = DIRECTION ( 'NONE',  ( 0.0000000000000000000, 1.000000000000000000, 0.0000000000000000000 ) ) ;
#213 = DIRECTION ( 'NONE',  ( -4.275831445896958607E-31, -1.000000000000000000, -1.224646799147353207E-16 ) ) ;
#214 = DATE_TIME_ROLE ( 'creation_date' ) ;
#215 = APPROVAL_PERSON_ORGANIZATION ( #203, #100, #46 ) ;
#216 = CARTESIAN_POINT ( 'NONE',  ( 1.316288464743861212E-13, -4.616918432785521081E-15, 37.69999999999999574 ) ) ;
#217 = CC_DESIGN_DATE_AND_TIME_ASSIGNMENT ( #30, #214, ( #175 ) ) ;
#218 = ORIENTED_EDGE ( 'NONE', *, *, #71, .T. ) ;
#219 = ADVANCED_FACE ( 'NONE', ( #99, #176 ), #12, .T. ) ;
#220 = DATE_AND_TIME ( #136, #201 ) ;
#221 = CARTESIAN_POINT ( 'NONE',  ( 1.326762908760390423E-13, 1.199999999999989297, 38.00000000000000000 ) ) ;
#222 = AXIS2_PLACEMENT_3D ( 'NONE', #130, #116, #211 ) ;
#223 = MECHANICAL_CONTEXT ( 'NONE', #227, 'mechanical' ) ;
#224 = CC_DESIGN_DATE_AND_TIME_ASSIGNMENT ( #220, #43, ( #103 ) ) ;
#225 = DATE_AND_TIME ( #126, #66 ) ;
#226 = LOCAL_TIME ( 10, 16, 30.00000000000000000, #11 ) ;
#227 = APPLICATION_CONTEXT ( 'configuration controlled 3d designs of mechanical parts and assemblies' ) ;
#228 = ORGANIZATION ( 'UNSPECIFIED', 'UNSPECIFIED', '' ) ;
#229 = DIRECTION ( 'NONE',  ( 4.275831445896958607E-31, 1.000000000000000000, 1.224646799147353207E-16 ) ) ;
#230 = DIRECTION ( 'NONE',  ( -3.491481338843133355E-15, 1.224646799147353207E-16, -1.000000000000000000 ) ) ;
#231 = ADVANCED_FACE ( 'NONE', ( #38 ), #129, .F. ) ;
#232 = DIRECTION ( 'NONE',  ( 3.491481338843133355E-15, -1.219242935835426903E-16, 1.000000000000000000 ) ) ;
#233 = DIRECTION ( 'NONE',  ( -4.314380810749513187E-31, -1.000000000000000000, -1.219242935835426903E-16 ) ) ;
#234 = DIRECTION ( 'NONE',  ( -4.275831445896958607E-31, -1.000000000000000000, -1.224646799147353207E-16 ) ) ;
#235 = VERTEX_POINT ( 'NONE', #221 ) ;
#236 = DIRECTION ( 'NONE',  ( -4.256963957985708889E-31, -1.000000000000000000, -1.219242935835426903E-16 ) ) ;
#237 = CALENDAR_DATE ( 2021, 1, 11 ) ;
#238 = FACE_OUTER_BOUND ( 'NONE', #13, .T. ) ;
#239 = APPROVAL_DATE_TIME ( #181, #100 ) ;
#240 = DIRECTION ( 'NONE',  ( 3.491481338843133355E-15, -1.219242935835426903E-16, 1.000000000000000000 ) ) ;
#241 = AXIS2_PLACEMENT_3D ( 'NONE', #61, #65, #15 ) ;
#242 = ORIENTED_EDGE ( 'NONE', *, *, #122, .F. ) ;
#243 = APPROVAL_ROLE ( '' ) ;
ENDSEC;
END-ISO-10303-21;
