ISO-10303-21;
HEADER;
FILE_DESCRIPTION (( 'STEP AP203' ),
    '1' );
FILE_NAME ('47925.step',
    '2021-11-01T09:16:30',
    ( '' ),
    ( '' ),
    'SwSTEP 2.0',
    'SolidWorks 2019',
    '' );
FILE_SCHEMA (( 'CONFIG_CONTROL_DESIGN' ));
ENDSEC;

DATA;
#1 = CARTESIAN_POINT ( 'NONE',  ( 2.135198650927374854E-14, -1.499999999999992228, 6.115451992176052620 ) ) ;
#2 = COORDINATED_UNIVERSAL_TIME_OFFSET ( 1, 0, .AHEAD. ) ;
#3 = DATE_TIME_ROLE ( 'creation_date' ) ;
#4 = EDGE_LOOP ( 'NONE', ( #100 ) ) ;
#5 = APPROVAL_ROLE ( '' ) ;
#6 = ORIENTED_EDGE ( 'NONE', *, *, #156, .T. ) ;
#7 = DESIGN_CONTEXT ( 'detailed design', #169, 'design' ) ;
#8 = CALENDAR_DATE ( 2021, 1, 11 ) ;
#9 = CIRCLE ( 'NONE', #225, 0.6431483474218603336 ) ;
#10 = CLOSED_SHELL ( 'NONE', ( #74, #127, #171 ) ) ;
#11 = APPROVAL ( #69, 'UNSPECIFIED' ) ;
#12 = DIRECTION ( 'NONE',  ( 4.275831445896958607E-31, 1.000000000000000000, 1.224646799147353207E-16 ) ) ;
#13 = CARTESIAN_POINT ( 'NONE',  ( 1.326762908760390423E-13, 8.998558695971030697E-33, 38.00000000000000000 ) ) ;
#14 = ADVANCED_FACE ( 'NONE', ( #56, #50 ), #142, .T. ) ;
#15 = DIRECTION ( 'NONE',  ( -3.491481338843133355E-15, 1.224646799147353207E-16, -1.000000000000000000 ) ) ;
#16 = EDGE_LOOP ( 'NONE', ( #190 ) ) ;
#17 = PLANE ( 'NONE',  #103 ) ;
#18 = CARTESIAN_POINT ( 'NONE',  ( 8.379555213223516897E-15, -4.336808689942017736E-16, 2.399999999999999467 ) ) ;
#19 = EDGE_LOOP ( 'NONE', ( #151 ) ) ;
#20 = AXIS2_PLACEMENT_3D ( 'NONE', #18, #128, #97 ) ;
#21 = PERSON_AND_ORGANIZATION_ROLE ( 'creator' ) ;
#22 = VERTEX_POINT ( 'NONE', #1 ) ;
#23 = CARTESIAN_POINT ( 'NONE',  ( 8.379555213223516897E-15, -0.5750000000000001776, 2.399999999999999467 ) ) ;
#24 = EDGE_CURVE ( 'NONE', #207, #207, #46, .T. ) ;
#25 = AXIS2_PLACEMENT_3D ( 'NONE', #134, #187, #37 ) ;
#26 = APPROVAL_DATE_TIME ( #210, #126 ) ;
#27 = SECURITY_CLASSIFICATION_LEVEL ( 'unclassified' ) ;
#28 = CARTESIAN_POINT ( 'NONE',  ( 1.326762908760390423E-13, -4.653657836759941941E-15, 38.00000000000000000 ) ) ;
#29 = LOCAL_TIME ( 10, 16, 30.00000000000000000, #66 ) ;
#30 = AXIS2_PLACEMENT_3D ( 'NONE', #28, #110, #180 ) ;
#31 = LOCAL_TIME ( 10, 16, 30.00000000000000000, #2 ) ;
#32 = CYLINDRICAL_SURFACE ( 'NONE', #202, 0.5749999999999999556 ) ;
#33 = PRODUCT_DEFINITION_SHAPE ( 'NONE', 'NONE',  #243 ) ;
#34 = PLANE ( 'NONE',  #198 ) ;
#35 = FACE_OUTER_BOUND ( 'NONE', #19, .T. ) ;
#36 = AXIS2_PLACEMENT_3D ( 'NONE', #129, #173, #168 ) ;
#37 = DIRECTION ( 'NONE',  ( -4.256963957985704510E-31, -1.000000000000000000, -1.219242935835425917E-16 ) ) ;
#38 = DIRECTION ( 'NONE',  ( 4.275831445896958607E-31, 1.000000000000000000, 1.224646799147353207E-16 ) ) ;
#39 = CALENDAR_DATE ( 2021, 1, 11 ) ;
#40 = AXIS2_PLACEMENT_3D ( 'NONE', #113, #241, #57 ) ;
#41 = APPROVAL_PERSON_ORGANIZATION ( #73, #91, #51 ) ;
#42 = PERSON_AND_ORGANIZATION_ROLE ( 'design_owner' ) ;
#43 = MECHANICAL_CONTEXT ( 'NONE', #159, 'mechanical' ) ;
#44 = EDGE_LOOP ( 'NONE', ( #153 ) ) ;
#45 = DATE_AND_TIME ( #212, #75 ) ;
#46 = CIRCLE ( 'NONE', #131, 1.499999999999993783 ) ;
#47 = ORIENTED_EDGE ( 'NONE', *, *, #49, .T. ) ;
#48 = PERSON_AND_ORGANIZATION ( #157, #220 ) ;
#49 = EDGE_CURVE ( 'NONE', #116, #116, #9, .T. ) ;
#50 = FACE_BOUND ( 'NONE', #119, .T. ) ;
#51 = APPROVAL_ROLE ( '' ) ;
#52 = CARTESIAN_POINT ( 'NONE',  ( -1.282754905350004587E-30, 4.499298539707956128E-32, -3.673956068672651857E-16 ) ) ;
#53 = CC_DESIGN_DATE_AND_TIME_ASSIGNMENT ( #85, #3, ( #243 ) ) ;
#54 = FACE_OUTER_BOUND ( 'NONE', #16, .T. ) ;
#55 = PLANE ( 'NONE',  #36 ) ;
#56 = FACE_OUTER_BOUND ( 'NONE', #137, .T. ) ;
#57 = DIRECTION ( 'NONE',  ( 0.0000000000000000000, 1.000000000000000000, 0.0000000000000000000 ) ) ;
#58 = EDGE_LOOP ( 'NONE', ( #67 ) ) ;
#59 = CIRCLE ( 'NONE', #95, 0.5749999999999998446 ) ;
#60 = FACE_BOUND ( 'NONE', #215, .T. ) ;
#61 = CC_DESIGN_PERSON_AND_ORGANIZATION_ASSIGNMENT ( #104, #21, ( #243 ) ) ;
#62 = PERSON_AND_ORGANIZATION ( #157, #220 ) ;
#63 = APPROVAL_DATE_TIME ( #45, #11 ) ;
#64 = CC_DESIGN_APPROVAL ( #91, ( #211 ) ) ;
#65 = ADVANCED_FACE ( 'NONE', ( #197 ), #34, .F. ) ;
#66 = COORDINATED_UNIVERSAL_TIME_OFFSET ( 1, 0, .AHEAD. ) ;
#67 = ORIENTED_EDGE ( 'NONE', *, *, #111, .F. ) ;
#68 = EDGE_LOOP ( 'NONE', ( #117 ) ) ;
#69 = APPROVAL_STATUS ( 'not_yet_approved' ) ;
#70 = AXIS2_PLACEMENT_3D ( 'NONE', #208, #132, #221 ) ;
#71 = DIRECTION ( 'NONE',  ( 0.0000000000000000000, -1.000000000000000000, 0.0000000000000000000 ) ) ;
#72 = APPROVAL_PERSON_ORGANIZATION ( #48, #126, #5 ) ;
#73 = PERSON_AND_ORGANIZATION ( #157, #220 ) ;
#74 = ADVANCED_FACE ( 'NONE', ( #35 ), #78, .T. ) ;
#75 = LOCAL_TIME ( 10, 16, 30.00000000000000000, #174 ) ;
#76 = CARTESIAN_POINT ( 'NONE',  ( 2.135198650927374854E-14, -7.456221640901339255E-16, 6.115451992176052620 ) ) ;
#77 = PRODUCT ( '47925', '47925', '', ( #43 ) ) ;
#78 = PLANE ( 'NONE',  #82 ) ;
#79 = FACE_OUTER_BOUND ( 'NONE', #58, .T. ) ;
#80 = EDGE_LOOP ( 'NONE', ( #209 ) ) ;
#81 = FACE_OUTER_BOUND ( 'NONE', #121, .T. ) ;
#82 = AXIS2_PLACEMENT_3D ( 'NONE', #102, #148, #150 ) ;
#83 = CIRCLE ( 'NONE', #25, 0.5749999999999999556 ) ;
#84 = CARTESIAN_POINT ( 'NONE',  ( 1.018687894544877643E-14, -0.6431483474218606666, 2.917638090205028512 ) ) ;
#85 = DATE_AND_TIME ( #214, #177 ) ;
#86 =( GEOMETRIC_REPRESENTATION_CONTEXT ( 3 ) GLOBAL_UNCERTAINTY_ASSIGNED_CONTEXT ( ( #182 ) ) GLOBAL_UNIT_ASSIGNED_CONTEXT ( ( #106, #193, #229 ) ) REPRESENTATION_CONTEXT ( 'NONE', 'WORKASPACE' ) );
#87 = PERSON_AND_ORGANIZATION ( #157, #220 ) ;
#88 = ORIENTED_EDGE ( 'NONE', *, *, #24, .F. ) ;
#89 = APPLICATION_PROTOCOL_DEFINITION ( 'international standard', 'config_control_design', 1994, #169 ) ;
#90 = DATE_TIME_ROLE ( 'classification_date' ) ;
#91 = APPROVAL ( #160, 'UNSPECIFIED' ) ;
#92 = CARTESIAN_POINT ( 'NONE',  ( 1.316288464743861212E-13, -4.616918432785521081E-15, 37.69999999999999574 ) ) ;
#93 = TOROIDAL_SURFACE ( 'NONE', #20, 2.575000000000001066, 2.000000000000000444 ) ;
#94 = CC_DESIGN_DATE_AND_TIME_ASSIGNMENT ( #184, #90, ( #211 ) ) ;
#95 = AXIS2_PLACEMENT_3D ( 'NONE', #205, #237, #152 ) ;
#96 = EDGE_CURVE ( 'NONE', #189, #189, #147, .T. ) ;
#97 = DIRECTION ( 'NONE',  ( -4.315008317337095747E-31, -1.000000000000000000, -1.219242935835426903E-16 ) ) ;
#98 = DIRECTION ( 'NONE',  ( 3.491481338843133355E-15, -1.219242935835426903E-16, 1.000000000000000000 ) ) ;
#99 = CYLINDRICAL_SURFACE ( 'NONE', #192, 1.499999999999991562 ) ;
#100 = ORIENTED_EDGE ( 'NONE', *, *, #24, .T. ) ;
#101 = DIRECTION ( 'NONE',  ( 3.491481338843133355E-15, -1.224646799147353207E-16, 1.000000000000000000 ) ) ;
#102 = CARTESIAN_POINT ( 'NONE',  ( 8.379555213223518475E-15, 1.124819836996384995E-32, 2.399999999999999911 ) ) ;
#103 = AXIS2_PLACEMENT_3D ( 'NONE', #52, #101, #240 ) ;
#104 = PERSON_AND_ORGANIZATION ( #157, #220 ) ;
#105 = CARTESIAN_POINT ( 'NONE',  ( 0.0000000000000000000, 0.0000000000000000000, 0.0000000000000000000 ) ) ;
#106 =( LENGTH_UNIT ( ) NAMED_UNIT ( * ) SI_UNIT ( .MILLI., .METRE. ) );
#107 = PRODUCT_DEFINITION_FORMATION_WITH_SPECIFIED_SOURCE ( 'ANY', '', #77, .NOT_KNOWN. ) ;
#108 = PERSON_AND_ORGANIZATION ( #157, #220 ) ;
#109 = ORIENTED_EDGE ( 'NONE', *, *, #96, .T. ) ;
#110 = DIRECTION ( 'NONE',  ( -3.491481338843133355E-15, 1.224646799147353207E-16, -1.000000000000000000 ) ) ;
#111 = EDGE_CURVE ( 'NONE', #216, #216, #170, .T. ) ;
#112 = DIRECTION ( 'NONE',  ( -4.256963957985708889E-31, -1.000000000000000000, -1.219242935835426903E-16 ) ) ;
#113 = CARTESIAN_POINT ( 'NONE',  ( 1.326762908760390423E-13, -4.653657836759941941E-15, 38.00000000000000000 ) ) ;
#114 = CARTESIAN_POINT ( 'NONE',  ( 1.316288464743861212E-13, 1.499999999999989120, 37.69999999999999574 ) ) ;
#115 = APPROVAL_PERSON_ORGANIZATION ( #87, #11, #231 ) ;
#116 = VERTEX_POINT ( 'NONE', #84 ) ;
#117 = ORIENTED_EDGE ( 'NONE', *, *, #219, .T. ) ;
#118 = FACE_OUTER_BOUND ( 'NONE', #4, .T. ) ;
#119 = EDGE_LOOP ( 'NONE', ( #109 ) ) ;
#120 = PERSON_AND_ORGANIZATION_ROLE ( 'design_supplier' ) ;
#121 = EDGE_LOOP ( 'NONE', ( #179 ) ) ;
#122 = CARTESIAN_POINT ( 'NONE',  ( 8.379555213223516897E-15, -0.5750000000000001776, 2.399999999999999467 ) ) ;
#123 = AXIS2_PLACEMENT_3D ( 'NONE', #105, #135, #178 ) ;
#124 = CARTESIAN_POINT ( 'NONE',  ( 1.018687894544877643E-14, -3.557309630806847409E-16, 2.917638090205028512 ) ) ;
#125 = CALENDAR_DATE ( 2021, 1, 11 ) ;
#126 = APPROVAL ( #138, 'UNSPECIFIED' ) ;
#127 = ADVANCED_FACE ( 'NONE', ( #166, #81 ), #32, .T. ) ;
#128 = DIRECTION ( 'NONE',  ( 3.491481338843133355E-15, -1.219242935835426903E-16, 1.000000000000000000 ) ) ;
#129 = CARTESIAN_POINT ( 'NONE',  ( 8.379555213223518475E-15, 1.124819836996384995E-32, 2.399999999999999911 ) ) ;
#130 = DIRECTION ( 'NONE',  ( -3.491481338843133355E-15, 1.219242935835426903E-16, -1.000000000000000000 ) ) ;
#131 = AXIS2_PLACEMENT_3D ( 'NONE', #92, #232, #143 ) ;
#132 = DIRECTION ( 'NONE',  ( 3.491481338843133355E-15, -1.219242935835426903E-16, 1.000000000000000000 ) ) ;
#133 = CONICAL_SURFACE ( 'NONE', #165, 2.499999999999992895, 0.2617993877991429685 ) ;
#134 = CARTESIAN_POINT ( 'NONE',  ( -3.451659955168725926E-30, 1.205337107326459104E-31, -9.885947024171689129E-16 ) ) ;
#135 = DIRECTION ( 'NONE',  ( 0.0000000000000000000, 0.0000000000000000000, 1.000000000000000000 ) ) ;
#136 = PERSON_AND_ORGANIZATION ( #157, #220 ) ;
#137 = EDGE_LOOP ( 'NONE', ( #88 ) ) ;
#138 = APPROVAL_STATUS ( 'not_yet_approved' ) ;
#139 = CC_DESIGN_PERSON_AND_ORGANIZATION_ASSIGNMENT ( #62, #42, ( #77 ) ) ;
#140 = ORIENTED_EDGE ( 'NONE', *, *, #96, .F. ) ;
#141 = PERSON_AND_ORGANIZATION_ROLE ( 'creator' ) ;
#142 = CONICAL_SURFACE ( 'NONE', #30, 1.199999999999993738, 0.7853981633974453924 ) ;
#143 = DIRECTION ( 'NONE',  ( 0.0000000000000000000, 1.000000000000000000, 0.0000000000000000000 ) ) ;
#144 = DATE_AND_TIME ( #125, #188 ) ;
#145 = APPROVAL_DATE_TIME ( #144, #91 ) ;
#146 = ADVANCED_FACE ( 'NONE', ( #60, #222 ), #133, .T. ) ;
#147 = CIRCLE ( 'NONE', #40, 1.199999999999993738 ) ;
#148 = DIRECTION ( 'NONE',  ( 3.491481338843133355E-15, -1.224646799147353207E-16, 1.000000000000000000 ) ) ;
#149 = CARTESIAN_POINT ( 'NONE',  ( 0.0000000000000000000, 0.0000000000000000000, 0.0000000000000000000 ) ) ;
#150 = DIRECTION ( 'NONE',  ( -4.275831445896958607E-31, -1.000000000000000000, -1.224646799147353207E-16 ) ) ;
#151 = ORIENTED_EDGE ( 'NONE', *, *, #203, .T. ) ;
#152 = DIRECTION ( 'NONE',  ( 0.0000000000000000000, -1.000000000000000000, 0.0000000000000000000 ) ) ;
#153 = ORIENTED_EDGE ( 'NONE', *, *, #49, .F. ) ;
#154 = PERSON_AND_ORGANIZATION_ROLE ( 'classification_officer' ) ;
#155 = PERSON_AND_ORGANIZATION ( #157, #220 ) ;
#156 = EDGE_CURVE ( 'NONE', #194, #194, #83, .T. ) ;
#157 = PERSON ( 'UNSPECIFIED', 'UNSPECIFIED', 'UNSPECIFIED', ('UNSPECIFIED'), ('UNSPECIFIED'), ('UNSPECIFIED') ) ;
#158 = EDGE_LOOP ( 'NONE', ( #140 ) ) ;
#159 = APPLICATION_CONTEXT ( 'configuration controlled 3d designs of mechanical parts and assemblies' ) ;
#160 = APPROVAL_STATUS ( 'not_yet_approved' ) ;
#161 = PRODUCT_RELATED_PRODUCT_CATEGORY ( 'detail', '', ( #77 ) ) ;
#162 = CC_DESIGN_APPROVAL ( #11, ( #107 ) ) ;
#163 = MANIFOLD_SOLID_BREP ( 'Corps-Déplacer/Copier1[1]', #238 ) ;
#164 = ADVANCED_FACE ( 'NONE', ( #118, #242 ), #99, .T. ) ;
#165 = AXIS2_PLACEMENT_3D ( 'NONE', #191, #98, #167 ) ;
#166 = FACE_OUTER_BOUND ( 'NONE', #195, .T. ) ;
#167 = DIRECTION ( 'NONE',  ( 0.0000000000000000000, -1.000000000000000000, 0.0000000000000000000 ) ) ;
#168 = DIRECTION ( 'NONE',  ( -4.275831445896958607E-31, -1.000000000000000000, -1.224646799147353207E-16 ) ) ;
#169 = APPLICATION_CONTEXT ( 'configuration controlled 3d designs of mechanical parts and assemblies' ) ;
#170 = CIRCLE ( 'NONE', #70, 0.5749999999999998446 ) ;
#171 = ADVANCED_FACE ( 'NONE', ( #54 ), #17, .F. ) ;
#172 = AXIS2_PLACEMENT_3D ( 'NONE', #76, #130, #186 ) ;
#173 = DIRECTION ( 'NONE',  ( 3.491481338843133355E-15, -1.224646799147353207E-16, 1.000000000000000000 ) ) ;
#174 = COORDINATED_UNIVERSAL_TIME_OFFSET ( 1, 0, .AHEAD. ) ;
#175 = APPLICATION_PROTOCOL_DEFINITION ( 'international standard', 'config_control_design', 1994, #159 ) ;
#176 = CC_DESIGN_PERSON_AND_ORGANIZATION_ASSIGNMENT ( #108, #141, ( #107 ) ) ;
#177 = LOCAL_TIME ( 10, 16, 30.00000000000000000, #196 ) ;
#178 = DIRECTION ( 'NONE',  ( 1.000000000000000000, 0.0000000000000000000, 0.0000000000000000000 ) ) ;
#179 = ORIENTED_EDGE ( 'NONE', *, *, #203, .F. ) ;
#180 = DIRECTION ( 'NONE',  ( 0.0000000000000000000, 1.000000000000000000, 0.0000000000000000000 ) ) ;
#181 = CC_DESIGN_SECURITY_CLASSIFICATION ( #211, ( #107 ) ) ;
#182 = UNCERTAINTY_MEASURE_WITH_UNIT (LENGTH_MEASURE( 1.000000000000000082E-05 ), #106, 'distance_accuracy_value', 'NONE');
#183 = CC_DESIGN_APPROVAL ( #126, ( #243 ) ) ;
#184 = DATE_AND_TIME ( #39, #29 ) ;
#185 = CC_DESIGN_PERSON_AND_ORGANIZATION_ASSIGNMENT ( #136, #120, ( #107 ) ) ;
#186 = DIRECTION ( 'NONE',  ( 0.0000000000000000000, -1.000000000000000000, 0.0000000000000000000 ) ) ;
#187 = DIRECTION ( 'NONE',  ( 3.491481338843133355E-15, -1.219242935835426903E-16, 1.000000000000000000 ) ) ;
#188 = LOCAL_TIME ( 10, 16, 30.00000000000000000, #199 ) ;
#189 = VERTEX_POINT ( 'NONE', #236 ) ;
#190 = ORIENTED_EDGE ( 'NONE', *, *, #156, .F. ) ;
#191 = CARTESIAN_POINT ( 'NONE',  ( 3.438237225951527949E-14, -1.200649822420871461E-15, 9.847502799745029733 ) ) ;
#192 = AXIS2_PLACEMENT_3D ( 'NONE', #224, #15, #12 ) ;
#193 =( NAMED_UNIT ( * ) PLANE_ANGLE_UNIT ( ) SI_UNIT ( $, .RADIAN. ) );
#194 = VERTEX_POINT ( 'NONE', #228 ) ;
#195 = EDGE_LOOP ( 'NONE', ( #6 ) ) ;
#196 = COORDINATED_UNIVERSAL_TIME_OFFSET ( 1, 0, .AHEAD. ) ;
#197 = FACE_OUTER_BOUND ( 'NONE', #158, .T. ) ;
#198 = AXIS2_PLACEMENT_3D ( 'NONE', #13, #204, #38 ) ;
#199 = COORDINATED_UNIVERSAL_TIME_OFFSET ( 1, 0, .AHEAD. ) ;
#200 = ADVANCED_FACE ( 'NONE', ( #79 ), #55, .F. ) ;
#201 = ADVANCED_BREP_SHAPE_REPRESENTATION ( '47925', ( #163, #239, #123 ), #86 ) ;
#202 = AXIS2_PLACEMENT_3D ( 'NONE', #149, #223, #112 ) ;
#203 = EDGE_CURVE ( 'NONE', #230, #230, #59, .T. ) ;
#204 = DIRECTION ( 'NONE',  ( -3.491481338843133355E-15, 1.224646799147353207E-16, -1.000000000000000000 ) ) ;
#205 = CARTESIAN_POINT ( 'NONE',  ( 8.379555213223516897E-15, -2.926183046005023679E-16, 2.399999999999999467 ) ) ;
#206 = FACE_OUTER_BOUND ( 'NONE', #227, .T. ) ;
#207 = VERTEX_POINT ( 'NONE', #114 ) ;
#208 = CARTESIAN_POINT ( 'NONE',  ( 8.379555213223516897E-15, -2.926183046005023679E-16, 2.399999999999999467 ) ) ;
#209 = ORIENTED_EDGE ( 'NONE', *, *, #219, .F. ) ;
#210 = DATE_AND_TIME ( #8, #31 ) ;
#211 = SECURITY_CLASSIFICATION ( '', '', #27 ) ;
#212 = CALENDAR_DATE ( 2021, 1, 11 ) ;
#213 = ORIENTED_EDGE ( 'NONE', *, *, #111, .T. ) ;
#214 = CALENDAR_DATE ( 2021, 1, 11 ) ;
#215 = EDGE_LOOP ( 'NONE', ( #47 ) ) ;
#216 = VERTEX_POINT ( 'NONE', #122 ) ;
#217 = CC_DESIGN_PERSON_AND_ORGANIZATION_ASSIGNMENT ( #155, #154, ( #211 ) ) ;
#218 = DIRECTION ( 'NONE',  ( 3.491481338843133355E-15, -1.219242935835426903E-16, 1.000000000000000000 ) ) ;
#219 = EDGE_CURVE ( 'NONE', #22, #22, #233, .T. ) ;
#220 = ORGANIZATION ( 'UNSPECIFIED', 'UNSPECIFIED', '' ) ;
#221 = DIRECTION ( 'NONE',  ( 0.0000000000000000000, -1.000000000000000000, 0.0000000000000000000 ) ) ;
#222 = FACE_OUTER_BOUND ( 'NONE', #68, .T. ) ;
#223 = DIRECTION ( 'NONE',  ( 3.491481338843133355E-15, -1.219242935835426903E-16, 1.000000000000000000 ) ) ;
#224 = CARTESIAN_POINT ( 'NONE',  ( 0.0000000000000000000, 0.0000000000000000000, 0.0000000000000000000 ) ) ;
#225 = AXIS2_PLACEMENT_3D ( 'NONE', #124, #218, #71 ) ;
#226 = FACE_OUTER_BOUND ( 'NONE', #44, .T. ) ;
#227 = EDGE_LOOP ( 'NONE', ( #213 ) ) ;
#228 = CARTESIAN_POINT ( 'NONE',  ( -3.696435382752904054E-30, -0.5749999999999999556, -1.058701171227705817E-15 ) ) ;
#229 =( NAMED_UNIT ( * ) SI_UNIT ( $, .STERADIAN. ) SOLID_ANGLE_UNIT ( ) );
#230 = VERTEX_POINT ( 'NONE', #23 ) ;
#231 = APPROVAL_ROLE ( '' ) ;
#232 = DIRECTION ( 'NONE',  ( -3.491481338843133355E-15, 1.224646799147353207E-16, -1.000000000000000000 ) ) ;
#233 = CIRCLE ( 'NONE', #172, 1.499999999999991562 ) ;
#234 = ADVANCED_FACE ( 'NONE', ( #206, #226 ), #93, .F. ) ;
#235 = SHAPE_DEFINITION_REPRESENTATION ( #33, #201 ) ;
#236 = CARTESIAN_POINT ( 'NONE',  ( 1.326762908760390423E-13, 1.199999999999989297, 38.00000000000000000 ) ) ;
#237 = DIRECTION ( 'NONE',  ( 3.491481338843133355E-15, -1.219242935835426903E-16, 1.000000000000000000 ) ) ;
#238 = CLOSED_SHELL ( 'NONE', ( #164, #14, #65, #146, #234, #200 ) ) ;
#239 = MANIFOLD_SOLID_BREP ( 'Corps-Déplacer/Copier1[2]', #10 ) ;
#240 = DIRECTION ( 'NONE',  ( -4.275831445896958607E-31, -1.000000000000000000, -1.224646799147353207E-16 ) ) ;
#241 = DIRECTION ( 'NONE',  ( -3.491481338843133355E-15, 1.224646799147353207E-16, -1.000000000000000000 ) ) ;
#242 = FACE_OUTER_BOUND ( 'NONE', #80, .T. ) ;
#243 = PRODUCT_DEFINITION ( 'UNKNOWN', '', #107, #7 ) ;
ENDSEC;
END-ISO-10303-21;
