ISO-10303-21;
HEADER;
FILE_DESCRIPTION (( 'STEP AP203' ),
    '1' );
FILE_NAME ('47924.step',
    '2021-11-01T09:16:29',
    ( '' ),
    ( '' ),
    'SwSTEP 2.0',
    'SolidWorks 2019',
    '' );
FILE_SCHEMA (( 'CONFIG_CONTROL_DESIGN' ));
ENDSEC;

DATA;
#1 = EDGE_CURVE ( 'NONE', #238, #238, #153, .T. ) ;
#2 = DIRECTION ( 'NONE',  ( 3.491481338843133355E-15, -1.224646799147353207E-16, 1.000000000000000000 ) ) ;
#3 = CARTESIAN_POINT ( 'NONE',  ( 9.488582677680149762E-15, -3.313461043639761733E-16, 2.717638090205028778 ) ) ;
#4 = EDGE_LOOP ( 'NONE', ( #71 ) ) ;
#5 = AXIS2_PLACEMENT_3D ( 'NONE', #176, #163, #143 ) ;
#6 = DIRECTION ( 'NONE',  ( -3.491481338843133355E-15, 1.224646799147353207E-16, -1.000000000000000000 ) ) ;
#7 = PERSON_AND_ORGANIZATION_ROLE ( 'classification_officer' ) ;
#8 = CARTESIAN_POINT ( 'NONE',  ( 0.0000000000000000000, 0.0000000000000000000, 0.0000000000000000000 ) ) ;
#9 = CALENDAR_DATE ( 2021, 1, 11 ) ;
#10 = CARTESIAN_POINT ( 'NONE',  ( 0.0000000000000000000, 0.0000000000000000000, 0.0000000000000000000 ) ) ;
#11 = DATE_AND_TIME ( #45, #151 ) ;
#12 = CLOSED_SHELL ( 'NONE', ( #237, #23, #38 ) ) ;
#13 = PERSON_AND_ORGANIZATION ( #117, #76 ) ;
#14 = VERTEX_POINT ( 'NONE', #50 ) ;
#15 = FACE_OUTER_BOUND ( 'NONE', #49, .T. ) ;
#16 = APPROVAL_PERSON_ORGANIZATION ( #47, #112, #31 ) ;
#17 = CC_DESIGN_PERSON_AND_ORGANIZATION_ASSIGNMENT ( #193, #7, ( #207 ) ) ;
#18 = FACE_OUTER_BOUND ( 'NONE', #202, .T. ) ;
#19 = CC_DESIGN_SECURITY_CLASSIFICATION ( #207, ( #134 ) ) ;
#20 = PLANE ( 'NONE',  #105 ) ;
#21 = DIRECTION ( 'NONE',  ( 0.0000000000000000000, 1.000000000000000000, 0.0000000000000000000 ) ) ;
#22 = AXIS2_PLACEMENT_3D ( 'NONE', #3, #101, #73 ) ;
#23 = ADVANCED_FACE ( 'NONE', ( #227, #157 ), #60, .T. ) ;
#24 = DIRECTION ( 'NONE',  ( 0.0000000000000000000, -1.000000000000000000, 0.0000000000000000000 ) ) ;
#25 = CC_DESIGN_PERSON_AND_ORGANIZATION_ASSIGNMENT ( #13, #158, ( #111 ) ) ;
#26 = EDGE_CURVE ( 'NONE', #14, #14, #212, .T. ) ;
#27 = AXIS2_PLACEMENT_3D ( 'NONE', #99, #6, #61 ) ;
#28 = DIRECTION ( 'NONE',  ( 3.491481338843133355E-15, -1.219242935835426903E-16, 1.000000000000000000 ) ) ;
#29 = APPROVAL_STATUS ( 'not_yet_approved' ) ;
#30 = DATE_AND_TIME ( #32, #228 ) ;
#31 = APPROVAL_ROLE ( '' ) ;
#32 = CALENDAR_DATE ( 2021, 1, 11 ) ;
#33 = EDGE_LOOP ( 'NONE', ( #167 ) ) ;
#34 = AXIS2_PLACEMENT_3D ( 'NONE', #114, #88, #67 ) ;
#35 = APPROVAL ( #242, 'UNSPECIFIED' ) ;
#36 = EDGE_LOOP ( 'NONE', ( #180 ) ) ;
#37 = CARTESIAN_POINT ( 'NONE',  ( 1.326762908760390423E-13, 8.998558695971030697E-33, 38.00000000000000000 ) ) ;
#38 = ADVANCED_FACE ( 'NONE', ( #63 ), #133, .F. ) ;
#39 = DIRECTION ( 'NONE',  ( -3.491481338843133355E-15, 1.224646799147353207E-16, -1.000000000000000000 ) ) ;
#40 = AXIS2_PLACEMENT_3D ( 'NONE', #173, #118, #44 ) ;
#41 = FACE_OUTER_BOUND ( 'NONE', #169, .T. ) ;
#42 = FACE_OUTER_BOUND ( 'NONE', #110, .T. ) ;
#43 = AXIS2_PLACEMENT_3D ( 'NONE', #74, #28, #135 ) ;
#44 = DIRECTION ( 'NONE',  ( -4.275831445896958607E-31, -1.000000000000000000, -1.224646799147353207E-16 ) ) ;
#45 = CALENDAR_DATE ( 2021, 1, 11 ) ;
#46 = CARTESIAN_POINT ( 'NONE',  ( 1.326762908760390423E-13, 1.199999999999989297, 38.00000000000000000 ) ) ;
#47 = PERSON_AND_ORGANIZATION ( #117, #76 ) ;
#48 = AXIS2_PLACEMENT_3D ( 'NONE', #94, #155, #188 ) ;
#49 = EDGE_LOOP ( 'NONE', ( #182 ) ) ;
#50 = CARTESIAN_POINT ( 'NONE',  ( 2.130520952901720141E-14, -1.499999999999992228, 6.102054532554501698 ) ) ;
#51 = EDGE_LOOP ( 'NONE', ( #183 ) ) ;
#52 = ORIENTED_EDGE ( 'NONE', *, *, #87, .F. ) ;
#53 = FACE_BOUND ( 'NONE', #219, .T. ) ;
#54 = APPLICATION_PROTOCOL_DEFINITION ( 'international standard', 'config_control_design', 1994, #224 ) ;
#55 = FACE_OUTER_BOUND ( 'NONE', #33, .T. ) ;
#56 = CIRCLE ( 'NONE', #93, 1.499999999999993783 ) ;
#57 = PRODUCT ( '47924', '47924', '', ( #144 ) ) ;
#58 = CIRCLE ( 'NONE', #43, 0.5249999999999996891 ) ;
#59 = CC_DESIGN_APPROVAL ( #35, ( #111 ) ) ;
#60 = CYLINDRICAL_SURFACE ( 'NONE', #75, 0.5250000000000000222 ) ;
#61 = DIRECTION ( 'NONE',  ( 0.0000000000000000000, 1.000000000000000000, 0.0000000000000000000 ) ) ;
#62 = APPROVAL_ROLE ( '' ) ;
#63 = FACE_OUTER_BOUND ( 'NONE', #146, .T. ) ;
#64 = PERSON_AND_ORGANIZATION ( #117, #76 ) ;
#65 = CARTESIAN_POINT ( 'NONE',  ( 1.316288464743861212E-13, 1.499999999999989120, 37.69999999999999574 ) ) ;
#66 = COORDINATED_UNIVERSAL_TIME_OFFSET ( 1, 0, .AHEAD. ) ;
#67 = DIRECTION ( 'NONE',  ( 0.0000000000000000000, 1.000000000000000000, 0.0000000000000000000 ) ) ;
#68 = CARTESIAN_POINT ( 'NONE',  ( 7.681258945454893382E-15, -0.5249999999999999112, 2.199999999999999734 ) ) ;
#69 = VERTEX_POINT ( 'NONE', #68 ) ;
#70 = ORIENTED_EDGE ( 'NONE', *, *, #87, .T. ) ;
#71 = ORIENTED_EDGE ( 'NONE', *, *, #186, .F. ) ;
#72 = EDGE_LOOP ( 'NONE', ( #89 ) ) ;
#73 = DIRECTION ( 'NONE',  ( 0.0000000000000000000, -1.000000000000000000, 0.0000000000000000000 ) ) ;
#74 = CARTESIAN_POINT ( 'NONE',  ( 7.681258945454893382E-15, -2.682334458837938989E-16, 2.199999999999999734 ) ) ;
#75 = AXIS2_PLACEMENT_3D ( 'NONE', #141, #79, #122 ) ;
#76 = ORGANIZATION ( 'UNSPECIFIED', 'UNSPECIFIED', '' ) ;
#77 = DIRECTION ( 'NONE',  ( 0.0000000000000000000, -1.000000000000000000, 0.0000000000000000000 ) ) ;
#78 = AXIS2_PLACEMENT_3D ( 'NONE', #10, #129, #85 ) ;
#79 = DIRECTION ( 'NONE',  ( 3.491481338843133355E-15, -1.219242935835426903E-16, 1.000000000000000000 ) ) ;
#80 = APPROVAL_DATE_TIME ( #11, #112 ) ;
#81 = DIRECTION ( 'NONE',  ( -3.491481338843133355E-15, 1.224646799147353207E-16, -1.000000000000000000 ) ) ;
#82 = APPROVAL_DATE_TIME ( #104, #140 ) ;
#83 = SHAPE_DEFINITION_REPRESENTATION ( #152, #168 ) ;
#84 = TOROIDAL_SURFACE ( 'NONE', #48, 2.525000000000001243, 2.000000000000000888 ) ;
#85 = DIRECTION ( 'NONE',  ( 1.000000000000000000, 0.0000000000000000000, 0.0000000000000000000 ) ) ;
#86 = MANIFOLD_SOLID_BREP ( 'Corps-Déplacer/Copier1[1]', #181 ) ;
#87 = EDGE_CURVE ( 'NONE', #165, #165, #97, .T. ) ;
#88 = DIRECTION ( 'NONE',  ( -3.491481338843133355E-15, 1.224646799147353207E-16, -1.000000000000000000 ) ) ;
#89 = ORIENTED_EDGE ( 'NONE', *, *, #186, .T. ) ;
#90 = CARTESIAN_POINT ( 'NONE',  ( 9.488582677680149762E-15, -0.5931483474218605112, 2.717638090205028778 ) ) ;
#91 = ORIENTED_EDGE ( 'NONE', *, *, #209, .T. ) ;
#92 = ORIENTED_EDGE ( 'NONE', *, *, #26, .F. ) ;
#93 = AXIS2_PLACEMENT_3D ( 'NONE', #115, #39, #21 ) ;
#94 = CARTESIAN_POINT ( 'NONE',  ( 7.681258945454893382E-15, -4.336808689942017736E-16, 2.199999999999999734 ) ) ;
#95 = FACE_BOUND ( 'NONE', #131, .T. ) ;
#96 = DIRECTION ( 'NONE',  ( 3.491481338843133355E-15, -1.219242935835426903E-16, 1.000000000000000000 ) ) ;
#97 = CIRCLE ( 'NONE', #22, 0.5931483474218601781 ) ;
#98 = CC_DESIGN_DATE_AND_TIME_ASSIGNMENT ( #119, #102, ( #111 ) ) ;
#99 = CARTESIAN_POINT ( 'NONE',  ( 1.326762908760390423E-13, -4.653657836759941941E-15, 38.00000000000000000 ) ) ;
#100 = CC_DESIGN_APPROVAL ( #140, ( #207 ) ) ;
#101 = DIRECTION ( 'NONE',  ( 3.491481338843133355E-15, -1.219242935835426903E-16, 1.000000000000000000 ) ) ;
#102 = DATE_TIME_ROLE ( 'creation_date' ) ;
#103 = ADVANCED_FACE ( 'NONE', ( #55 ), #20, .F. ) ;
#104 = DATE_AND_TIME ( #9, #166 ) ;
#105 = AXIS2_PLACEMENT_3D ( 'NONE', #37, #232, #150 ) ;
#106 = PERSON_AND_ORGANIZATION ( #117, #76 ) ;
#107 =( NAMED_UNIT ( * ) PLANE_ANGLE_UNIT ( ) SI_UNIT ( $, .RADIAN. ) );
#108 = EDGE_LOOP ( 'NONE', ( #217 ) ) ;
#109 = EDGE_LOOP ( 'NONE', ( #164 ) ) ;
#110 = EDGE_LOOP ( 'NONE', ( #92 ) ) ;
#111 = PRODUCT_DEFINITION ( 'UNKNOWN', '', #134, #121 ) ;
#112 = APPROVAL ( #138, 'UNSPECIFIED' ) ;
#113 = AXIS2_PLACEMENT_3D ( 'NONE', #137, #211, #156 ) ;
#114 = CARTESIAN_POINT ( 'NONE',  ( 1.326762908760390423E-13, -4.653657836759941941E-15, 38.00000000000000000 ) ) ;
#115 = CARTESIAN_POINT ( 'NONE',  ( 1.316288464743861212E-13, -4.616918432785521081E-15, 37.69999999999999574 ) ) ;
#116 = EDGE_CURVE ( 'NONE', #69, #69, #160, .T. ) ;
#117 = PERSON ( 'UNSPECIFIED', 'UNSPECIFIED', 'UNSPECIFIED', ('UNSPECIFIED'), ('UNSPECIFIED'), ('UNSPECIFIED') ) ;
#118 = DIRECTION ( 'NONE',  ( 3.491481338843133355E-15, -1.224646799147353207E-16, 1.000000000000000000 ) ) ;
#119 = DATE_AND_TIME ( #162, #198 ) ;
#120 = AXIS2_PLACEMENT_3D ( 'NONE', #8, #81, #148 ) ;
#121 = DESIGN_CONTEXT ( 'detailed design', #224, 'design' ) ;
#122 = DIRECTION ( 'NONE',  ( -4.256963957985708889E-31, -1.000000000000000000, -1.219242935835426656E-16 ) ) ;
#123 =( LENGTH_UNIT ( ) NAMED_UNIT ( * ) SI_UNIT ( .MILLI., .METRE. ) );
#124 = COORDINATED_UNIVERSAL_TIME_OFFSET ( 1, 0, .AHEAD. ) ;
#125 = APPROVAL_PERSON_ORGANIZATION ( #106, #140, #62 ) ;
#126 = CARTESIAN_POINT ( 'NONE',  ( 7.681258945454893382E-15, -0.5249999999999999112, 2.199999999999999734 ) ) ;
#127 = APPLICATION_CONTEXT ( 'configuration controlled 3d designs of mechanical parts and assemblies' ) ;
#128 = EDGE_CURVE ( 'NONE', #178, #178, #58, .T. ) ;
#129 = DIRECTION ( 'NONE',  ( 0.0000000000000000000, 0.0000000000000000000, 1.000000000000000000 ) ) ;
#130 = APPROVAL_ROLE ( '' ) ;
#131 = EDGE_LOOP ( 'NONE', ( #70 ) ) ;
#132 = ADVANCED_FACE ( 'NONE', ( #95, #204 ), #136, .T. ) ;
#133 = PLANE ( 'NONE',  #206 ) ;
#134 = PRODUCT_DEFINITION_FORMATION_WITH_SPECIFIED_SOURCE ( 'ANY', '', #57, .NOT_KNOWN. ) ;
#135 = DIRECTION ( 'NONE',  ( 0.0000000000000000000, -1.000000000000000000, 0.0000000000000000000 ) ) ;
#136 = CONICAL_SURFACE ( 'NONE', #113, 2.499999999999992895, 0.2617993877991430240 ) ;
#137 = CARTESIAN_POINT ( 'NONE',  ( 3.433559527925872921E-14, -1.199016346620700110E-15, 9.834105340123478811 ) ) ;
#138 = APPROVAL_STATUS ( 'not_yet_approved' ) ;
#139 = UNCERTAINTY_MEASURE_WITH_UNIT (LENGTH_MEASURE( 1.000000000000000082E-05 ), #123, 'distance_accuracy_value', 'NONE');
#140 = APPROVAL ( #29, 'UNSPECIFIED' ) ;
#141 = CARTESIAN_POINT ( 'NONE',  ( 0.0000000000000000000, 0.0000000000000000000, 0.0000000000000000000 ) ) ;
#142 = FACE_OUTER_BOUND ( 'NONE', #51, .T. ) ;
#143 = DIRECTION ( 'NONE',  ( -4.275831445896958607E-31, -1.000000000000000000, -1.224646799147353207E-16 ) ) ;
#144 = MECHANICAL_CONTEXT ( 'NONE', #127, 'mechanical' ) ;
#145 = PERSON_AND_ORGANIZATION ( #117, #76 ) ;
#146 = EDGE_LOOP ( 'NONE', ( #239 ) ) ;
#147 = AXIS2_PLACEMENT_3D ( 'NONE', #189, #225, #172 ) ;
#148 = DIRECTION ( 'NONE',  ( 4.275831445896958607E-31, 1.000000000000000000, 1.224646799147353207E-16 ) ) ;
#149 = CALENDAR_DATE ( 2021, 1, 11 ) ;
#150 = DIRECTION ( 'NONE',  ( 4.275831445896958607E-31, 1.000000000000000000, 1.224646799147353207E-16 ) ) ;
#151 = LOCAL_TIME ( 10, 16, 29.00000000000000000, #124 ) ;
#152 = PRODUCT_DEFINITION_SHAPE ( 'NONE', 'NONE',  #111 ) ;
#153 = CIRCLE ( 'NONE', #147, 0.5250000000000002442 ) ;
#154 = CC_DESIGN_PERSON_AND_ORGANIZATION_ASSIGNMENT ( #145, #223, ( #57 ) ) ;
#155 = DIRECTION ( 'NONE',  ( 3.491481338843133355E-15, -1.219242935835426903E-16, 1.000000000000000000 ) ) ;
#156 = DIRECTION ( 'NONE',  ( 0.0000000000000000000, -1.000000000000000000, 0.0000000000000000000 ) ) ;
#157 = FACE_OUTER_BOUND ( 'NONE', #109, .T. ) ;
#158 = PERSON_AND_ORGANIZATION_ROLE ( 'creator' ) ;
#159 =( NAMED_UNIT ( * ) SI_UNIT ( $, .STERADIAN. ) SOLID_ANGLE_UNIT ( ) );
#160 = CIRCLE ( 'NONE', #243, 0.5249999999999996891 ) ;
#161 = APPROVAL_PERSON_ORGANIZATION ( #226, #35, #130 ) ;
#162 = CALENDAR_DATE ( 2021, 1, 11 ) ;
#163 = DIRECTION ( 'NONE',  ( 3.491481338843133355E-15, -1.224646799147353207E-16, 1.000000000000000000 ) ) ;
#164 = ORIENTED_EDGE ( 'NONE', *, *, #116, .F. ) ;
#165 = VERTEX_POINT ( 'NONE', #90 ) ;
#166 = LOCAL_TIME ( 10, 16, 29.00000000000000000, #177 ) ;
#167 = ORIENTED_EDGE ( 'NONE', *, *, #209, .F. ) ;
#168 = ADVANCED_BREP_SHAPE_REPRESENTATION ( '47924', ( #86, #171, #78 ), #184 ) ;
#169 = EDGE_LOOP ( 'NONE', ( #52 ) ) ;
#170 = FACE_OUTER_BOUND ( 'NONE', #72, .T. ) ;
#171 = MANIFOLD_SOLID_BREP ( 'Corps-Déplacer/Copier1[2]', #12 ) ;
#172 = DIRECTION ( 'NONE',  ( -4.256963957985711516E-31, -1.000000000000000000, -1.219242935835426163E-16 ) ) ;
#173 = CARTESIAN_POINT ( 'NONE',  ( 7.681258945454894959E-15, 1.124819836996384995E-32, 2.200000000000000178 ) ) ;
#174 = DIRECTION ( 'NONE',  ( -4.275831445896958607E-31, -1.000000000000000000, -1.224646799147353207E-16 ) ) ;
#175 = CYLINDRICAL_SURFACE ( 'NONE', #120, 1.499999999999991562 ) ;
#176 = CARTESIAN_POINT ( 'NONE',  ( 7.681258945454894959E-15, 1.124819836996384995E-32, 2.200000000000000178 ) ) ;
#177 = COORDINATED_UNIVERSAL_TIME_OFFSET ( 1, 0, .AHEAD. ) ;
#178 = VERTEX_POINT ( 'NONE', #126 ) ;
#179 = CC_DESIGN_DATE_AND_TIME_ASSIGNMENT ( #30, #194, ( #207 ) ) ;
#180 = ORIENTED_EDGE ( 'NONE', *, *, #1, .T. ) ;
#181 = CLOSED_SHELL ( 'NONE', ( #218, #234, #103, #132, #196, #205 ) ) ;
#182 = ORIENTED_EDGE ( 'NONE', *, *, #116, .T. ) ;
#183 = ORIENTED_EDGE ( 'NONE', *, *, #128, .F. ) ;
#184 =( GEOMETRIC_REPRESENTATION_CONTEXT ( 3 ) GLOBAL_UNCERTAINTY_ASSIGNED_CONTEXT ( ( #139 ) ) GLOBAL_UNIT_ASSIGNED_CONTEXT ( ( #123, #107, #159 ) ) REPRESENTATION_CONTEXT ( 'NONE', 'WORKASPACE' ) );
#185 = CARTESIAN_POINT ( 'NONE',  ( 7.681258945454893382E-15, -2.682334458837938989E-16, 2.199999999999999734 ) ) ;
#186 = EDGE_CURVE ( 'NONE', #199, #199, #56, .T. ) ;
#187 = CC_DESIGN_PERSON_AND_ORGANIZATION_ASSIGNMENT ( #215, #197, ( #134 ) ) ;
#188 = DIRECTION ( 'NONE',  ( -4.315649691473575847E-31, -1.000000000000000000, -1.219242935835426903E-16 ) ) ;
#189 = CARTESIAN_POINT ( 'NONE',  ( -3.430375135378797850E-30, 1.197904340643536425E-31, -9.824984877379918080E-16 ) ) ;
#190 = CIRCLE ( 'NONE', #27, 1.199999999999993738 ) ;
#191 = SECURITY_CLASSIFICATION_LEVEL ( 'unclassified' ) ;
#192 = APPLICATION_PROTOCOL_DEFINITION ( 'international standard', 'config_control_design', 1994, #127 ) ;
#193 = PERSON_AND_ORGANIZATION ( #117, #76 ) ;
#194 = DATE_TIME_ROLE ( 'classification_date' ) ;
#195 = VERTEX_POINT ( 'NONE', #46 ) ;
#196 = ADVANCED_FACE ( 'NONE', ( #18, #41 ), #84, .F. ) ;
#197 = PERSON_AND_ORGANIZATION_ROLE ( 'creator' ) ;
#198 = LOCAL_TIME ( 10, 16, 29.00000000000000000, #66 ) ;
#199 = VERTEX_POINT ( 'NONE', #65 ) ;
#200 = COORDINATED_UNIVERSAL_TIME_OFFSET ( 1, 0, .AHEAD. ) ;
#201 = AXIS2_PLACEMENT_3D ( 'NONE', #208, #230, #24 ) ;
#202 = EDGE_LOOP ( 'NONE', ( #241 ) ) ;
#203 = CARTESIAN_POINT ( 'NONE',  ( -1.282754905350004587E-30, 4.499298539707956128E-32, -3.673956068672651857E-16 ) ) ;
#204 = FACE_OUTER_BOUND ( 'NONE', #108, .T. ) ;
#205 = ADVANCED_FACE ( 'NONE', ( #142 ), #213, .F. ) ;
#206 = AXIS2_PLACEMENT_3D ( 'NONE', #203, #2, #174 ) ;
#207 = SECURITY_CLASSIFICATION ( '', '', #191 ) ;
#208 = CARTESIAN_POINT ( 'NONE',  ( 2.130520952901720141E-14, -7.439886882899624762E-16, 6.102054532554501698 ) ) ;
#209 = EDGE_CURVE ( 'NONE', #195, #195, #190, .T. ) ;
#210 = PERSON_AND_ORGANIZATION_ROLE ( 'design_supplier' ) ;
#211 = DIRECTION ( 'NONE',  ( 3.491481338843133355E-15, -1.219242935835426903E-16, 1.000000000000000000 ) ) ;
#212 = CIRCLE ( 'NONE', #201, 1.499999999999991562 ) ;
#213 = PLANE ( 'NONE',  #40 ) ;
#214 = CC_DESIGN_APPROVAL ( #112, ( #134 ) ) ;
#215 = PERSON_AND_ORGANIZATION ( #117, #76 ) ;
#216 = PLANE ( 'NONE',  #5 ) ;
#217 = ORIENTED_EDGE ( 'NONE', *, *, #26, .T. ) ;
#218 = ADVANCED_FACE ( 'NONE', ( #170, #42 ), #175, .T. ) ;
#219 = EDGE_LOOP ( 'NONE', ( #91 ) ) ;
#220 = CONICAL_SURFACE ( 'NONE', #34, 1.199999999999993738, 0.7853981633974453924 ) ;
#221 = FACE_OUTER_BOUND ( 'NONE', #4, .T. ) ;
#222 = CC_DESIGN_PERSON_AND_ORGANIZATION_ASSIGNMENT ( #64, #210, ( #134 ) ) ;
#223 = PERSON_AND_ORGANIZATION_ROLE ( 'design_owner' ) ;
#224 = APPLICATION_CONTEXT ( 'configuration controlled 3d designs of mechanical parts and assemblies' ) ;
#225 = DIRECTION ( 'NONE',  ( 3.491481338843133355E-15, -1.219242935835426903E-16, 1.000000000000000000 ) ) ;
#226 = PERSON_AND_ORGANIZATION ( #117, #76 ) ;
#227 = FACE_OUTER_BOUND ( 'NONE', #36, .T. ) ;
#228 = LOCAL_TIME ( 10, 16, 29.00000000000000000, #231 ) ;
#229 = DATE_AND_TIME ( #149, #235 ) ;
#230 = DIRECTION ( 'NONE',  ( -3.491481338843133355E-15, 1.219242935835426903E-16, -1.000000000000000000 ) ) ;
#231 = COORDINATED_UNIVERSAL_TIME_OFFSET ( 1, 0, .AHEAD. ) ;
#232 = DIRECTION ( 'NONE',  ( -3.491481338843133355E-15, 1.224646799147353207E-16, -1.000000000000000000 ) ) ;
#233 = APPROVAL_DATE_TIME ( #229, #35 ) ;
#234 = ADVANCED_FACE ( 'NONE', ( #221, #53 ), #220, .T. ) ;
#235 = LOCAL_TIME ( 10, 16, 29.00000000000000000, #200 ) ;
#236 = CARTESIAN_POINT ( 'NONE',  ( -3.653865743173047902E-30, -0.5250000000000002442, -1.046508741869351804E-15 ) ) ;
#237 = ADVANCED_FACE ( 'NONE', ( #15 ), #216, .T. ) ;
#238 = VERTEX_POINT ( 'NONE', #236 ) ;
#239 = ORIENTED_EDGE ( 'NONE', *, *, #1, .F. ) ;
#240 = PRODUCT_RELATED_PRODUCT_CATEGORY ( 'detail', '', ( #57 ) ) ;
#241 = ORIENTED_EDGE ( 'NONE', *, *, #128, .T. ) ;
#242 = APPROVAL_STATUS ( 'not_yet_approved' ) ;
#243 = AXIS2_PLACEMENT_3D ( 'NONE', #185, #96, #77 ) ;
ENDSEC;
END-ISO-10303-21;
