ISO-10303-21;
HEADER;
FILE_DESCRIPTION (( 'STEP AP203' ),
    '1' );
FILE_NAME ('47923.step',
    '2021-11-01T09:16:28',
    ( '' ),
    ( '' ),
    'SwSTEP 2.0',
    'SolidWorks 2019',
    '' );
FILE_SCHEMA (( 'CONFIG_CONTROL_DESIGN' ));
ENDSEC;

DATA;
#1 = PERSON_AND_ORGANIZATION ( #173, #97 ) ;
#2 = ORIENTED_EDGE ( 'NONE', *, *, #62, .T. ) ;
#3 = CARTESIAN_POINT ( 'NONE',  ( 5.586370142149011002E-15, -1.950788697336681960E-16, 1.599999999999999201 ) ) ;
#4 = ADVANCED_BREP_SHAPE_REPRESENTATION ( '47923', ( #164, #166, #39 ), #215 ) ;
#5 = PRODUCT_RELATED_PRODUCT_CATEGORY ( 'detail', '', ( #156 ) ) ;
#6 = ORIENTED_EDGE ( 'NONE', *, *, #157, .T. ) ;
#7 = DIRECTION ( 'NONE',  ( 3.491481338843133355E-15, -1.219242935835426903E-16, 1.000000000000000000 ) ) ;
#8 = AXIS2_PLACEMENT_3D ( 'NONE', #177, #154, #102 ) ;
#9 =( NAMED_UNIT ( * ) PLANE_ANGLE_UNIT ( ) SI_UNIT ( $, .RADIAN. ) );
#10 = VERTEX_POINT ( 'NONE', #70 ) ;
#11 = EDGE_CURVE ( 'NONE', #186, #186, #71, .T. ) ;
#12 = ADVANCED_FACE ( 'NONE', ( #63, #232 ), #201, .T. ) ;
#13 = DIRECTION ( 'NONE',  ( 3.491481338843133355E-15, -1.219242935835426903E-16, 1.000000000000000000 ) ) ;
#14 = SHAPE_DEFINITION_REPRESENTATION ( #236, #4 ) ;
#15 = LOCAL_TIME ( 10, 16, 28.00000000000000000, #92 ) ;
#16 = COORDINATED_UNIVERSAL_TIME_OFFSET ( 1, 0, .AHEAD. ) ;
#17 = EDGE_LOOP ( 'NONE', ( #82 ) ) ;
#18 = PERSON_AND_ORGANIZATION_ROLE ( 'classification_officer' ) ;
#19 = PERSON_AND_ORGANIZATION_ROLE ( 'creator' ) ;
#20 = APPROVAL_PERSON_ORGANIZATION ( #72, #152, #79 ) ;
#21 = CC_DESIGN_PERSON_AND_ORGANIZATION_ASSIGNMENT ( #34, #35, ( #38 ) ) ;
#22 = DIRECTION ( 'NONE',  ( -4.256963957985708889E-31, -1.000000000000000000, -1.219242935835426903E-16 ) ) ;
#23 = CARTESIAN_POINT ( 'NONE',  ( 2.116487858824755372E-14, -7.390882608894475367E-16, 6.061862153689848931 ) ) ;
#24 = DIRECTION ( 'NONE',  ( -3.491481338843133355E-15, 1.224646799147353207E-16, -1.000000000000000000 ) ) ;
#25 = FACE_OUTER_BOUND ( 'NONE', #216, .T. ) ;
#26 = DIRECTION ( 'NONE',  ( -4.275831445896958607E-31, -1.000000000000000000, -1.224646799147353207E-16 ) ) ;
#27 = DIRECTION ( 'NONE',  ( -3.491481338843133355E-15, 1.219242935835426903E-16, -1.000000000000000000 ) ) ;
#28 = EDGE_CURVE ( 'NONE', #69, #69, #185, .T. ) ;
#29 = DIRECTION ( 'NONE',  ( 3.491481338843133355E-15, -1.219242935835426903E-16, 1.000000000000000000 ) ) ;
#30 = EDGE_LOOP ( 'NONE', ( #171 ) ) ;
#31 = CALENDAR_DATE ( 2021, 1, 11 ) ;
#32 = ORIENTED_EDGE ( 'NONE', *, *, #11, .T. ) ;
#33 = AXIS2_PLACEMENT_3D ( 'NONE', #195, #24, #158 ) ;
#34 = PERSON_AND_ORGANIZATION ( #173, #97 ) ;
#35 = PERSON_AND_ORGANIZATION_ROLE ( 'creator' ) ;
#36 = ORIENTED_EDGE ( 'NONE', *, *, #88, .F. ) ;
#37 = DATE_TIME_ROLE ( 'classification_date' ) ;
#38 = PRODUCT_DEFINITION ( 'UNKNOWN', '', #238, #125 ) ;
#39 = AXIS2_PLACEMENT_3D ( 'NONE', #94, #207, #150 ) ;
#40 = AXIS2_PLACEMENT_3D ( 'NONE', #223, #105, #206 ) ;
#41 = PLANE ( 'NONE',  #133 ) ;
#42 = APPLICATION_CONTEXT ( 'configuration controlled 3d designs of mechanical parts and assemblies' ) ;
#43 = EDGE_LOOP ( 'NONE', ( #6 ) ) ;
#44 = DIRECTION ( 'NONE',  ( 0.0000000000000000000, 1.000000000000000000, 0.0000000000000000000 ) ) ;
#45 = CARTESIAN_POINT ( 'NONE',  ( 7.393693874374268172E-15, -2.581915282138505196E-16, 2.117638090205028245 ) ) ;
#46 = CARTESIAN_POINT ( 'NONE',  ( 1.326762908760390423E-13, -4.653657836759941941E-15, 38.00000000000000000 ) ) ;
#47 = ADVANCED_FACE ( 'NONE', ( #231, #117 ), #65, .T. ) ;
#48 = APPROVAL_PERSON_ORGANIZATION ( #188, #180, #114 ) ;
#49 = CARTESIAN_POINT ( 'NONE',  ( -3.366520676009012221E-30, 1.175606040594767511E-31, -9.642098437004604932E-16 ) ) ;
#50 = DIRECTION ( 'NONE',  ( 3.491481338843133355E-15, -1.224646799147353207E-16, 1.000000000000000000 ) ) ;
#51 = APPROVAL ( #227, 'UNSPECIFIED' ) ;
#52 = FACE_OUTER_BOUND ( 'NONE', #192, .T. ) ;
#53 =( NAMED_UNIT ( * ) SI_UNIT ( $, .STERADIAN. ) SOLID_ANGLE_UNIT ( ) );
#54 = AXIS2_PLACEMENT_3D ( 'NONE', #23, #27, #144 ) ;
#55 = SECURITY_CLASSIFICATION_LEVEL ( 'unclassified' ) ;
#56 = EDGE_LOOP ( 'NONE', ( #2 ) ) ;
#57 = COORDINATED_UNIVERSAL_TIME_OFFSET ( 1, 0, .AHEAD. ) ;
#58 = ORIENTED_EDGE ( 'NONE', *, *, #103, .F. ) ;
#59 = CALENDAR_DATE ( 2021, 1, 11 ) ;
#60 = AXIS2_PLACEMENT_3D ( 'NONE', #46, #128, #107 ) ;
#61 = CALENDAR_DATE ( 2021, 1, 11 ) ;
#62 = EDGE_CURVE ( 'NONE', #10, #10, #211, .T. ) ;
#63 = FACE_OUTER_BOUND ( 'NONE', #17, .T. ) ;
#64 = CARTESIAN_POINT ( 'NONE',  ( -1.282754905350004587E-30, 4.499298539707956128E-32, -3.673956068672651857E-16 ) ) ;
#65 = CYLINDRICAL_SURFACE ( 'NONE', #33, 1.499999999999991562 ) ;
#66 = DIRECTION ( 'NONE',  ( 0.0000000000000000000, -1.000000000000000000, 0.0000000000000000000 ) ) ;
#67 = CARTESIAN_POINT ( 'NONE',  ( 5.586370142149011002E-15, -0.3750000000000003331, 1.599999999999999201 ) ) ;
#68 = CC_DESIGN_DATE_AND_TIME_ASSIGNMENT ( #191, #110, ( #38 ) ) ;
#69 = VERTEX_POINT ( 'NONE', #67 ) ;
#70 = CARTESIAN_POINT ( 'NONE',  ( 1.316288464743861212E-13, 1.499999999999989120, 37.69999999999999574 ) ) ;
#71 = CIRCLE ( 'NONE', #112, 0.3750000000000001110 ) ;
#72 = PERSON_AND_ORGANIZATION ( #173, #97 ) ;
#73 = SECURITY_CLASSIFICATION ( '', '', #55 ) ;
#74 = AXIS2_PLACEMENT_3D ( 'NONE', #49, #13, #124 ) ;
#75 = ORIENTED_EDGE ( 'NONE', *, *, #11, .F. ) ;
#76 = ADVANCED_FACE ( 'NONE', ( #86, #140 ), #172, .T. ) ;
#77 = PERSON_AND_ORGANIZATION_ROLE ( 'design_supplier' ) ;
#78 = EDGE_LOOP ( 'NONE', ( #80 ) ) ;
#79 = APPROVAL_ROLE ( '' ) ;
#80 = ORIENTED_EDGE ( 'NONE', *, *, #88, .T. ) ;
#81 = DATE_AND_TIME ( #61, #93 ) ;
#82 = ORIENTED_EDGE ( 'NONE', *, *, #62, .F. ) ;
#83 = CLOSED_SHELL ( 'NONE', ( #241, #76, #99 ) ) ;
#84 = DIRECTION ( 'NONE',  ( 3.491481338843133355E-15, -1.219242935835426903E-16, 1.000000000000000000 ) ) ;
#85 = AXIS2_PLACEMENT_3D ( 'NONE', #187, #127, #161 ) ;
#86 = FACE_OUTER_BOUND ( 'NONE', #194, .T. ) ;
#87 =( LENGTH_UNIT ( ) NAMED_UNIT ( * ) SI_UNIT ( .MILLI., .METRE. ) );
#88 = EDGE_CURVE ( 'NONE', #141, #141, #101, .T. ) ;
#89 = APPLICATION_PROTOCOL_DEFINITION ( 'international standard', 'config_control_design', 1994, #160 ) ;
#90 = FACE_OUTER_BOUND ( 'NONE', #190, .T. ) ;
#91 = PERSON_AND_ORGANIZATION ( #173, #97 ) ;
#92 = COORDINATED_UNIVERSAL_TIME_OFFSET ( 1, 0, .AHEAD. ) ;
#93 = LOCAL_TIME ( 10, 16, 28.00000000000000000, #57 ) ;
#94 = CARTESIAN_POINT ( 'NONE',  ( 0.0000000000000000000, 0.0000000000000000000, 0.0000000000000000000 ) ) ;
#95 = ADVANCED_FACE ( 'NONE', ( #198 ), #98, .F. ) ;
#96 = CALENDAR_DATE ( 2021, 1, 11 ) ;
#97 = ORGANIZATION ( 'UNSPECIFIED', 'UNSPECIFIED', '' ) ;
#98 = PLANE ( 'NONE',  #134 ) ;
#99 = ADVANCED_FACE ( 'NONE', ( #25 ), #41, .F. ) ;
#100 = AXIS2_PLACEMENT_3D ( 'NONE', #45, #137, #120 ) ;
#101 = CIRCLE ( 'NONE', #100, 0.4431483474218602114 ) ;
#102 = DIRECTION ( 'NONE',  ( 0.0000000000000000000, 1.000000000000000000, 0.0000000000000000000 ) ) ;
#103 = EDGE_CURVE ( 'NONE', #122, #122, #196, .T. ) ;
#104 = FACE_OUTER_BOUND ( 'NONE', #153, .T. ) ;
#105 = DIRECTION ( 'NONE',  ( 3.491481338843133355E-15, -1.219242935835426903E-16, 1.000000000000000000 ) ) ;
#106 = DIRECTION ( 'NONE',  ( -4.317661773764587743E-31, -1.000000000000000000, -1.219242935835426903E-16 ) ) ;
#107 = DIRECTION ( 'NONE',  ( 0.0000000000000000000, 1.000000000000000000, 0.0000000000000000000 ) ) ;
#108 = APPROVAL_DATE_TIME ( #242, #152 ) ;
#109 = EDGE_LOOP ( 'NONE', ( #32 ) ) ;
#110 = DATE_TIME_ROLE ( 'creation_date' ) ;
#111 = EDGE_LOOP ( 'NONE', ( #58 ) ) ;
#112 = AXIS2_PLACEMENT_3D ( 'NONE', #3, #119, #66 ) ;
#113 = CC_DESIGN_PERSON_AND_ORGANIZATION_ASSIGNMENT ( #1, #77, ( #238 ) ) ;
#114 = APPROVAL_ROLE ( '' ) ;
#115 = ORIENTED_EDGE ( 'NONE', *, *, #233, .F. ) ;
#116 = DATE_AND_TIME ( #59, #149 ) ;
#117 = FACE_OUTER_BOUND ( 'NONE', #111, .T. ) ;
#118 = DIRECTION ( 'NONE',  ( -4.275831445896958607E-31, -1.000000000000000000, -1.224646799147353207E-16 ) ) ;
#119 = DIRECTION ( 'NONE',  ( 3.491481338843133355E-15, -1.219242935835426903E-16, 1.000000000000000000 ) ) ;
#120 = DIRECTION ( 'NONE',  ( 0.0000000000000000000, -1.000000000000000000, 0.0000000000000000000 ) ) ;
#121 = CARTESIAN_POINT ( 'NONE',  ( 5.586370142149013368E-15, -2.312964634635748873E-16, 1.599999999999999867 ) ) ;
#122 = VERTEX_POINT ( 'NONE', #222 ) ;
#123 = CIRCLE ( 'NONE', #60, 1.199999999999993738 ) ;
#124 = DIRECTION ( 'NONE',  ( -4.256963957985704510E-31, -1.000000000000000000, -1.219242935835427149E-16 ) ) ;
#125 = DESIGN_CONTEXT ( 'detailed design', #42, 'design' ) ;
#126 = CARTESIAN_POINT ( 'NONE',  ( 5.586370142149011002E-15, 0.0000000000000000000, 1.599999999999999201 ) ) ;
#127 = DIRECTION ( 'NONE',  ( -3.491481338843133355E-15, 1.224646799147353207E-16, -1.000000000000000000 ) ) ;
#128 = DIRECTION ( 'NONE',  ( -3.491481338843133355E-15, 1.224646799147353207E-16, -1.000000000000000000 ) ) ;
#129 = CC_DESIGN_PERSON_AND_ORGANIZATION_ASSIGNMENT ( #170, #136, ( #156 ) ) ;
#130 = APPROVAL_DATE_TIME ( #116, #51 ) ;
#131 = ORIENTED_EDGE ( 'NONE', *, *, #157, .F. ) ;
#132 = DATE_AND_TIME ( #96, #168 ) ;
#133 = AXIS2_PLACEMENT_3D ( 'NONE', #64, #218, #118 ) ;
#134 = AXIS2_PLACEMENT_3D ( 'NONE', #121, #229, #199 ) ;
#135 = ORIENTED_EDGE ( 'NONE', *, *, #28, .T. ) ;
#136 = PERSON_AND_ORGANIZATION_ROLE ( 'design_owner' ) ;
#137 = DIRECTION ( 'NONE',  ( 3.491481338843133355E-15, -1.219242935835426903E-16, 1.000000000000000000 ) ) ;
#138 = CC_DESIGN_DATE_AND_TIME_ASSIGNMENT ( #81, #37, ( #73 ) ) ;
#139 = DIRECTION ( 'NONE',  ( 0.0000000000000000000, -1.000000000000000000, 0.0000000000000000000 ) ) ;
#140 = FACE_OUTER_BOUND ( 'NONE', #30, .T. ) ;
#141 = VERTEX_POINT ( 'NONE', #220 ) ;
#142 = AXIS2_PLACEMENT_3D ( 'NONE', #155, #178, #44 ) ;
#143 = FACE_OUTER_BOUND ( 'NONE', #151, .T. ) ;
#144 = DIRECTION ( 'NONE',  ( 0.0000000000000000000, -1.000000000000000000, 0.0000000000000000000 ) ) ;
#145 = PERSON_AND_ORGANIZATION ( #173, #97 ) ;
#146 = AXIS2_PLACEMENT_3D ( 'NONE', #219, #84, #22 ) ;
#147 = ORIENTED_EDGE ( 'NONE', *, *, #233, .T. ) ;
#148 = PERSON_AND_ORGANIZATION ( #173, #97 ) ;
#149 = LOCAL_TIME ( 10, 16, 28.00000000000000000, #189 ) ;
#150 = DIRECTION ( 'NONE',  ( 1.000000000000000000, 0.0000000000000000000, 0.0000000000000000000 ) ) ;
#151 = EDGE_LOOP ( 'NONE', ( #234 ) ) ;
#152 = APPROVAL ( #212, 'UNSPECIFIED' ) ;
#153 = EDGE_LOOP ( 'NONE', ( #36 ) ) ;
#154 = DIRECTION ( 'NONE',  ( -3.491481338843133355E-15, 1.224646799147353207E-16, -1.000000000000000000 ) ) ;
#155 = CARTESIAN_POINT ( 'NONE',  ( 1.326762908760390423E-13, -4.653657836759941941E-15, 38.00000000000000000 ) ) ;
#156 = PRODUCT ( '47923', '47923', '', ( #228 ) ) ;
#157 = EDGE_CURVE ( 'NONE', #221, #221, #123, .T. ) ;
#158 = DIRECTION ( 'NONE',  ( 4.275831445896958607E-31, 1.000000000000000000, 1.224646799147353207E-16 ) ) ;
#159 = APPROVAL_PERSON_ORGANIZATION ( #148, #51, #193 ) ;
#160 = APPLICATION_CONTEXT ( 'configuration controlled 3d designs of mechanical parts and assemblies' ) ;
#161 = DIRECTION ( 'NONE',  ( 4.275831445896958607E-31, 1.000000000000000000, 1.224646799147353207E-16 ) ) ;
#162 = CC_DESIGN_PERSON_AND_ORGANIZATION_ASSIGNMENT ( #145, #19, ( #238 ) ) ;
#163 = UNCERTAINTY_MEASURE_WITH_UNIT (LENGTH_MEASURE( 1.000000000000000082E-05 ), #87, 'distance_accuracy_value', 'NONE');
#164 = MANIFOLD_SOLID_BREP ( 'Corps-Déplacer/Copier1[1]', #209 ) ;
#165 = CC_DESIGN_APPROVAL ( #51, ( #73 ) ) ;
#166 = MANIFOLD_SOLID_BREP ( 'Corps-Déplacer/Copier1[2]', #83 ) ;
#167 = PLANE ( 'NONE',  #85 ) ;
#168 = LOCAL_TIME ( 10, 16, 28.00000000000000000, #239 ) ;
#169 = AXIS2_PLACEMENT_3D ( 'NONE', #202, #50, #26 ) ;
#170 = PERSON_AND_ORGANIZATION ( #173, #97 ) ;
#171 = ORIENTED_EDGE ( 'NONE', *, *, #28, .F. ) ;
#172 = CYLINDRICAL_SURFACE ( 'NONE', #146, 0.3750000000000000000 ) ;
#173 = PERSON ( 'UNSPECIFIED', 'UNSPECIFIED', 'UNSPECIFIED', ('UNSPECIFIED'), ('UNSPECIFIED'), ('UNSPECIFIED') ) ;
#174 = CC_DESIGN_SECURITY_CLASSIFICATION ( #73, ( #238 ) ) ;
#175 = ADVANCED_FACE ( 'NONE', ( #52 ), #167, .F. ) ;
#176 = AXIS2_PLACEMENT_3D ( 'NONE', #197, #7, #139 ) ;
#177 = CARTESIAN_POINT ( 'NONE',  ( 1.316288464743861212E-13, -4.616918432785521081E-15, 37.69999999999999574 ) ) ;
#178 = DIRECTION ( 'NONE',  ( -3.491481338843133355E-15, 1.224646799147353207E-16, -1.000000000000000000 ) ) ;
#179 = AXIS2_PLACEMENT_3D ( 'NONE', #126, #29, #106 ) ;
#180 = APPROVAL ( #214, 'UNSPECIFIED' ) ;
#181 = CARTESIAN_POINT ( 'NONE',  ( 5.586370142149011002E-15, -0.3750000000000003331, 1.599999999999999201 ) ) ;
#182 = FACE_BOUND ( 'NONE', #78, .T. ) ;
#183 = CC_DESIGN_PERSON_AND_ORGANIZATION_ASSIGNMENT ( #91, #18, ( #73 ) ) ;
#184 = CC_DESIGN_APPROVAL ( #180, ( #238 ) ) ;
#185 = CIRCLE ( 'NONE', #176, 0.3750000000000001110 ) ;
#186 = VERTEX_POINT ( 'NONE', #181 ) ;
#187 = CARTESIAN_POINT ( 'NONE',  ( 1.326762908760390423E-13, 8.998558695971030697E-33, 38.00000000000000000 ) ) ;
#188 = PERSON_AND_ORGANIZATION ( #173, #97 ) ;
#189 = COORDINATED_UNIVERSAL_TIME_OFFSET ( 1, 0, .AHEAD. ) ;
#190 = EDGE_LOOP ( 'NONE', ( #135 ) ) ;
#191 = DATE_AND_TIME ( #31, #15 ) ;
#192 = EDGE_LOOP ( 'NONE', ( #131 ) ) ;
#193 = APPROVAL_ROLE ( '' ) ;
#194 = EDGE_LOOP ( 'NONE', ( #147 ) ) ;
#195 = CARTESIAN_POINT ( 'NONE',  ( 0.0000000000000000000, 0.0000000000000000000, 0.0000000000000000000 ) ) ;
#196 = CIRCLE ( 'NONE', #54, 1.499999999999991562 ) ;
#197 = CARTESIAN_POINT ( 'NONE',  ( 5.586370142149011002E-15, -1.950788697336681960E-16, 1.599999999999999201 ) ) ;
#198 = FACE_OUTER_BOUND ( 'NONE', #226, .T. ) ;
#199 = DIRECTION ( 'NONE',  ( -4.275831445896958607E-31, -1.000000000000000000, -1.224646799147353207E-16 ) ) ;
#200 = CARTESIAN_POINT ( 'NONE',  ( 1.326762908760390423E-13, 1.199999999999989297, 38.00000000000000000 ) ) ;
#201 = CONICAL_SURFACE ( 'NONE', #142, 1.199999999999993738, 0.7853981633974453924 ) ;
#202 = CARTESIAN_POINT ( 'NONE',  ( 5.586370142149013368E-15, -2.312964634635748873E-16, 1.599999999999999867 ) ) ;
#203 = ADVANCED_FACE ( 'NONE', ( #182, #143 ), #217, .T. ) ;
#204 = CARTESIAN_POINT ( 'NONE',  ( -3.526156824433475943E-30, -0.3749999999999998890, -1.009931453794288977E-15 ) ) ;
#205 = VERTEX_POINT ( 'NONE', #204 ) ;
#206 = DIRECTION ( 'NONE',  ( 0.0000000000000000000, -1.000000000000000000, 0.0000000000000000000 ) ) ;
#207 = DIRECTION ( 'NONE',  ( 0.0000000000000000000, 0.0000000000000000000, 1.000000000000000000 ) ) ;
#208 = CALENDAR_DATE ( 2021, 1, 11 ) ;
#209 = CLOSED_SHELL ( 'NONE', ( #47, #12, #175, #203, #213, #95 ) ) ;
#210 = CC_DESIGN_APPROVAL ( #152, ( #38 ) ) ;
#211 = CIRCLE ( 'NONE', #8, 1.499999999999993783 ) ;
#212 = APPROVAL_STATUS ( 'not_yet_approved' ) ;
#213 = ADVANCED_FACE ( 'NONE', ( #237, #104 ), #224, .F. ) ;
#214 = APPROVAL_STATUS ( 'not_yet_approved' ) ;
#215 =( GEOMETRIC_REPRESENTATION_CONTEXT ( 3 ) GLOBAL_UNCERTAINTY_ASSIGNED_CONTEXT ( ( #163 ) ) GLOBAL_UNIT_ASSIGNED_CONTEXT ( ( #87, #9, #53 ) ) REPRESENTATION_CONTEXT ( 'NONE', 'WORKASPACE' ) );
#216 = EDGE_LOOP ( 'NONE', ( #115 ) ) ;
#217 = CONICAL_SURFACE ( 'NONE', #40, 2.499999999999992895, 0.2617993877991429130 ) ;
#218 = DIRECTION ( 'NONE',  ( 3.491481338843133355E-15, -1.224646799147353207E-16, 1.000000000000000000 ) ) ;
#219 = CARTESIAN_POINT ( 'NONE',  ( 0.0000000000000000000, 0.0000000000000000000, 0.0000000000000000000 ) ) ;
#220 = CARTESIAN_POINT ( 'NONE',  ( 7.393693874374268172E-15, -0.4431483474218604890, 2.117638090205028245 ) ) ;
#221 = VERTEX_POINT ( 'NONE', #200 ) ;
#222 = CARTESIAN_POINT ( 'NONE',  ( 2.116487858824755372E-14, -1.499999999999992228, 6.061862153689848931 ) ) ;
#223 = CARTESIAN_POINT ( 'NONE',  ( 3.419526433848909099E-14, -1.194115919220185269E-15, 9.793912961258827821 ) ) ;
#224 = TOROIDAL_SURFACE ( 'NONE', #179, 2.375000000000000000, 2.000000000000000000 ) ;
#225 = APPLICATION_PROTOCOL_DEFINITION ( 'international standard', 'config_control_design', 1994, #42 ) ;
#226 = EDGE_LOOP ( 'NONE', ( #75 ) ) ;
#227 = APPROVAL_STATUS ( 'not_yet_approved' ) ;
#228 = MECHANICAL_CONTEXT ( 'NONE', #160, 'mechanical' ) ;
#229 = DIRECTION ( 'NONE',  ( 3.491481338843133355E-15, -1.224646799147353207E-16, 1.000000000000000000 ) ) ;
#230 = CIRCLE ( 'NONE', #74, 0.3749999999999998890 ) ;
#231 = FACE_OUTER_BOUND ( 'NONE', #56, .T. ) ;
#232 = FACE_BOUND ( 'NONE', #43, .T. ) ;
#233 = EDGE_CURVE ( 'NONE', #205, #205, #230, .T. ) ;
#234 = ORIENTED_EDGE ( 'NONE', *, *, #103, .T. ) ;
#235 = PLANE ( 'NONE',  #169 ) ;
#236 = PRODUCT_DEFINITION_SHAPE ( 'NONE', 'NONE',  #38 ) ;
#237 = FACE_OUTER_BOUND ( 'NONE', #109, .T. ) ;
#238 = PRODUCT_DEFINITION_FORMATION_WITH_SPECIFIED_SOURCE ( 'ANY', '', #156, .NOT_KNOWN. ) ;
#239 = COORDINATED_UNIVERSAL_TIME_OFFSET ( 1, 0, .AHEAD. ) ;
#240 = APPROVAL_DATE_TIME ( #132, #180 ) ;
#241 = ADVANCED_FACE ( 'NONE', ( #90 ), #235, .T. ) ;
#242 = DATE_AND_TIME ( #208, #243 ) ;
#243 = LOCAL_TIME ( 10, 16, 28.00000000000000000, #16 ) ;
ENDSEC;
END-ISO-10303-21;
