ISO-10303-21;
HEADER;
FILE_DESCRIPTION (( 'STEP AP203' ),
    '1' );
FILE_NAME ('47922.step',
    '2021-11-01T09:16:28',
    ( '' ),
    ( '' ),
    'SwSTEP 2.0',
    'SolidWorks 2019',
    '' );
FILE_SCHEMA (( 'CONFIG_CONTROL_DESIGN' ));
ENDSEC;

DATA;
#1 = PERSON_AND_ORGANIZATION ( #18, #228 ) ;
#2 = APPLICATION_PROTOCOL_DEFINITION ( 'international standard', 'config_control_design', 1994, #136 ) ;
#3 = PRODUCT_RELATED_PRODUCT_CATEGORY ( 'detail', '', ( #104 ) ) ;
#4 = CARTESIAN_POINT ( 'NONE',  ( 6.695397606605640712E-15, -0.3931483474218602225, 1.917638090205028067 ) ) ;
#5 = SECURITY_CLASSIFICATION ( '', '', #120 ) ;
#6 = APPROVAL_STATUS ( 'not_yet_approved' ) ;
#7 = FACE_OUTER_BOUND ( 'NONE', #193, .T. ) ;
#8 = CALENDAR_DATE ( 2021, 1, 11 ) ;
#9 = TOROIDAL_SURFACE ( 'NONE', #178, 2.324999999999999734, 2.000000000000000000 ) ;
#10 = UNCERTAINTY_MEASURE_WITH_UNIT (LENGTH_MEASURE( 1.000000000000000082E-05 ), #93, 'distance_accuracy_value', 'NONE');
#11 = FACE_OUTER_BOUND ( 'NONE', #24, .T. ) ;
#12 = DIRECTION ( 'NONE',  ( 3.491481338843133355E-15, -1.224646799147353207E-16, 1.000000000000000000 ) ) ;
#13 = DIRECTION ( 'NONE',  ( 4.275831445896958607E-31, 1.000000000000000000, 1.224646799147353207E-16 ) ) ;
#14 = PRODUCT_DEFINITION_SHAPE ( 'NONE', 'NONE',  #174 ) ;
#15 = ORIENTED_EDGE ( 'NONE', *, *, #146, .F. ) ;
#16 = AXIS2_PLACEMENT_3D ( 'NONE', #219, #220, #36 ) ;
#17 = PLANE ( 'NONE',  #106 ) ;
#18 = PERSON ( 'UNSPECIFIED', 'UNSPECIFIED', 'UNSPECIFIED', ('UNSPECIFIED'), ('UNSPECIFIED'), ('UNSPECIFIED') ) ;
#19 = DIRECTION ( 'NONE',  ( -3.491481338843133355E-15, 1.224646799147353207E-16, -1.000000000000000000 ) ) ;
#20 = CC_DESIGN_PERSON_AND_ORGANIZATION_ASSIGNMENT ( #25, #27, ( #174 ) ) ;
#21 = LOCAL_TIME ( 10, 16, 28.00000000000000000, #79 ) ;
#22 = CARTESIAN_POINT ( 'NONE',  ( 4.888073874380383542E-15, -0.3250000000000000666, 1.399999999999999023 ) ) ;
#23 = VERTEX_POINT ( 'NONE', #4 ) ;
#24 = EDGE_LOOP ( 'NONE', ( #170 ) ) ;
#25 = PERSON_AND_ORGANIZATION ( #18, #228 ) ;
#26 = CC_DESIGN_SECURITY_CLASSIFICATION ( #5, ( #183 ) ) ;
#27 = PERSON_AND_ORGANIZATION_ROLE ( 'creator' ) ;
#28 = EDGE_LOOP ( 'NONE', ( #151 ) ) ;
#29 = MANIFOLD_SOLID_BREP ( 'Corps-Déplacer/Copier1[2]', #75 ) ;
#30 = FACE_OUTER_BOUND ( 'NONE', #80, .T. ) ;
#31 = FACE_OUTER_BOUND ( 'NONE', #87, .T. ) ;
#32 = AXIS2_PLACEMENT_3D ( 'NONE', #176, #158, #72 ) ;
#33 = PERSON_AND_ORGANIZATION ( #18, #228 ) ;
#34 = DATE_AND_TIME ( #215, #21 ) ;
#35 = FACE_OUTER_BOUND ( 'NONE', #241, .T. ) ;
#36 = DIRECTION ( 'NONE',  ( -4.256963957985708013E-31, -1.000000000000000000, -1.219242935835426903E-16 ) ) ;
#37 = CONICAL_SURFACE ( 'NONE', #168, 1.199999999999993738, 0.7853981633974453924 ) ;
#38 =( NAMED_UNIT ( * ) PLANE_ANGLE_UNIT ( ) SI_UNIT ( $, .RADIAN. ) );
#39 = EDGE_LOOP ( 'NONE', ( #63 ) ) ;
#40 = ORIENTED_EDGE ( 'NONE', *, *, #73, .F. ) ;
#41 = PLANE ( 'NONE',  #208 ) ;
#42 = COORDINATED_UNIVERSAL_TIME_OFFSET ( 1, 0, .AHEAD. ) ;
#43 = FACE_BOUND ( 'NONE', #81, .T. ) ;
#44 = DIRECTION ( 'NONE',  ( -4.275831445896958607E-31, -1.000000000000000000, -1.224646799147353207E-16 ) ) ;
#45 = CC_DESIGN_PERSON_AND_ORGANIZATION_ASSIGNMENT ( #1, #109, ( #104 ) ) ;
#46 = CC_DESIGN_APPROVAL ( #129, ( #183 ) ) ;
#47 = CARTESIAN_POINT ( 'NONE',  ( 4.888073874380383542E-15, 0.0000000000000000000, 1.399999999999999023 ) ) ;
#48 = CARTESIAN_POINT ( 'NONE',  ( -3.345235856219084145E-30, 1.168173273911844612E-31, -9.581136290212833882E-16 ) ) ;
#49 = AXIS2_PLACEMENT_3D ( 'NONE', #116, #101, #195 ) ;
#50 = CC_DESIGN_DATE_AND_TIME_ASSIGNMENT ( #34, #140, ( #5 ) ) ;
#51 = ADVANCED_FACE ( 'NONE', ( #67, #180 ), #37, .T. ) ;
#52 = DIRECTION ( 'NONE',  ( 0.0000000000000000000, 1.000000000000000000, 0.0000000000000000000 ) ) ;
#53 = EDGE_CURVE ( 'NONE', #127, #127, #143, .T. ) ;
#54 = VERTEX_POINT ( 'NONE', #153 ) ;
#55 = ADVANCED_FACE ( 'NONE', ( #35, #103 ), #167, .T. ) ;
#56 = CIRCLE ( 'NONE', #205, 0.3250000000000000111 ) ;
#57 = DATE_TIME_ROLE ( 'creation_date' ) ;
#58 = VERTEX_POINT ( 'NONE', #130 ) ;
#59 = ORIENTED_EDGE ( 'NONE', *, *, #204, .F. ) ;
#60 = VERTEX_POINT ( 'NONE', #210 ) ;
#61 = CC_DESIGN_PERSON_AND_ORGANIZATION_ASSIGNMENT ( #94, #97, ( #5 ) ) ;
#62 = DESIGN_CONTEXT ( 'detailed design', #136, 'design' ) ;
#63 = ORIENTED_EDGE ( 'NONE', *, *, #243, .F. ) ;
#64 = DIRECTION ( 'NONE',  ( 3.491481338843133355E-15, -1.224646799147353207E-16, 1.000000000000000000 ) ) ;
#65 = CARTESIAN_POINT ( 'NONE',  ( -1.282754905350004587E-30, 4.499298539707956128E-32, -3.673956068672651857E-16 ) ) ;
#66 = APPROVAL_DATE_TIME ( #159, #129 ) ;
#67 = FACE_OUTER_BOUND ( 'NONE', #124, .T. ) ;
#68 = AXIS2_PLACEMENT_3D ( 'NONE', #128, #105, #69 ) ;
#69 = DIRECTION ( 'NONE',  ( 4.275831445896958607E-31, 1.000000000000000000, 1.224646799147353207E-16 ) ) ;
#70 = CIRCLE ( 'NONE', #108, 0.3931483474218600005 ) ;
#71 = ORIENTED_EDGE ( 'NONE', *, *, #73, .T. ) ;
#72 = DIRECTION ( 'NONE',  ( 0.0000000000000000000, -1.000000000000000000, 0.0000000000000000000 ) ) ;
#73 = EDGE_CURVE ( 'NONE', #23, #23, #70, .T. ) ;
#74 = VERTEX_POINT ( 'NONE', #78 ) ;
#75 = CLOSED_SHELL ( 'NONE', ( #117, #239, #121 ) ) ;
#76 = COORDINATED_UNIVERSAL_TIME_OFFSET ( 1, 0, .AHEAD. ) ;
#77 = DIRECTION ( 'NONE',  ( 1.000000000000000000, 0.0000000000000000000, 0.0000000000000000000 ) ) ;
#78 = CARTESIAN_POINT ( 'NONE',  ( -3.483587184853619792E-30, -0.3250000000000000111, -9.977390244359347675E-16 ) ) ;
#79 = COORDINATED_UNIVERSAL_TIME_OFFSET ( 1, 0, .AHEAD. ) ;
#80 = EDGE_LOOP ( 'NONE', ( #15 ) ) ;
#81 = EDGE_LOOP ( 'NONE', ( #71 ) ) ;
#82 = FACE_OUTER_BOUND ( 'NONE', #28, .T. ) ;
#83 = PLANE ( 'NONE',  #162 ) ;
#84 = DIRECTION ( 'NONE',  ( 3.491481338843133355E-15, -1.219242935835426903E-16, 1.000000000000000000 ) ) ;
#85 = CYLINDRICAL_SURFACE ( 'NONE', #16, 0.3250000000000000111 ) ;
#86 = CC_DESIGN_APPROVAL ( #90, ( #174 ) ) ;
#87 = EDGE_LOOP ( 'NONE', ( #156 ) ) ;
#88 = ORIENTED_EDGE ( 'NONE', *, *, #53, .F. ) ;
#89 = AXIS2_PLACEMENT_3D ( 'NONE', #107, #19, #52 ) ;
#90 = APPROVAL ( #192, 'UNSPECIFIED' ) ;
#91 = AXIS2_PLACEMENT_3D ( 'NONE', #199, #164, #118 ) ;
#92 = CALENDAR_DATE ( 2021, 1, 11 ) ;
#93 =( LENGTH_UNIT ( ) NAMED_UNIT ( * ) SI_UNIT ( .MILLI., .METRE. ) );
#94 = PERSON_AND_ORGANIZATION ( #18, #228 ) ;
#95 = AXIS2_PLACEMENT_3D ( 'NONE', #119, #137, #200 ) ;
#96 = ADVANCED_FACE ( 'NONE', ( #43, #142 ), #189, .T. ) ;
#97 = PERSON_AND_ORGANIZATION_ROLE ( 'classification_officer' ) ;
#98 = DIRECTION ( 'NONE',  ( -3.491481338843133355E-15, 1.224646799147353207E-16, -1.000000000000000000 ) ) ;
#99 = DIRECTION ( 'NONE',  ( 3.491481338843133355E-15, -1.219242935835426903E-16, 1.000000000000000000 ) ) ;
#100 = ADVANCED_BREP_SHAPE_REPRESENTATION ( '47922', ( #187, #29, #224 ), #152 ) ;
#101 = DIRECTION ( 'NONE',  ( 3.491481338843133355E-15, -1.219242935835426903E-16, 1.000000000000000000 ) ) ;
#102 = PERSON_AND_ORGANIZATION_ROLE ( 'design_supplier' ) ;
#103 = FACE_OUTER_BOUND ( 'NONE', #226, .T. ) ;
#104 = PRODUCT ( '47922', '47922', '', ( #134 ) ) ;
#105 = DIRECTION ( 'NONE',  ( -3.491481338843133355E-15, 1.224646799147353207E-16, -1.000000000000000000 ) ) ;
#106 = AXIS2_PLACEMENT_3D ( 'NONE', #122, #222, #13 ) ;
#107 = CARTESIAN_POINT ( 'NONE',  ( 1.326762908760390423E-13, -4.653657836759941941E-15, 38.00000000000000000 ) ) ;
#108 = AXIS2_PLACEMENT_3D ( 'NONE', #150, #84, #139 ) ;
#109 = PERSON_AND_ORGANIZATION_ROLE ( 'design_owner' ) ;
#110 = APPROVAL ( #196, 'UNSPECIFIED' ) ;
#111 = ADVANCED_FACE ( 'NONE', ( #82, #7 ), #9, .F. ) ;
#112 = DIRECTION ( 'NONE',  ( 0.0000000000000000000, 0.0000000000000000000, 1.000000000000000000 ) ) ;
#113 = EDGE_LOOP ( 'NONE', ( #157 ) ) ;
#114 = CC_DESIGN_APPROVAL ( #110, ( #5 ) ) ;
#115 = APPROVAL_DATE_TIME ( #155, #90 ) ;
#116 = CARTESIAN_POINT ( 'NONE',  ( 4.888073874380383542E-15, -1.706940110169596530E-16, 1.399999999999999023 ) ) ;
#117 = ADVANCED_FACE ( 'NONE', ( #31 ), #214, .T. ) ;
#118 = DIRECTION ( 'NONE',  ( 0.0000000000000000000, -1.000000000000000000, 0.0000000000000000000 ) ) ;
#119 = CARTESIAN_POINT ( 'NONE',  ( 2.111810160799101291E-14, -7.374547850892760874E-16, 6.048464694068299785 ) ) ;
#120 = SECURITY_CLASSIFICATION_LEVEL ( 'unclassified' ) ;
#121 = ADVANCED_FACE ( 'NONE', ( #30 ), #41, .F. ) ;
#122 = CARTESIAN_POINT ( 'NONE',  ( 1.326762908760390423E-13, 8.998558695971030697E-33, 38.00000000000000000 ) ) ;
#123 = FACE_OUTER_BOUND ( 'NONE', #39, .T. ) ;
#124 = EDGE_LOOP ( 'NONE', ( #88 ) ) ;
#125 = FACE_OUTER_BOUND ( 'NONE', #184, .T. ) ;
#126 = APPROVAL_PERSON_ORGANIZATION ( #209, #129, #177 ) ;
#127 = VERTEX_POINT ( 'NONE', #211 ) ;
#128 = CARTESIAN_POINT ( 'NONE',  ( 0.0000000000000000000, 0.0000000000000000000, 0.0000000000000000000 ) ) ;
#129 = APPROVAL ( #6, 'UNSPECIFIED' ) ;
#130 = CARTESIAN_POINT ( 'NONE',  ( 4.888073874380383542E-15, -0.3250000000000000666, 1.399999999999999023 ) ) ;
#131 = CIRCLE ( 'NONE', #49, 0.3249999999999999556 ) ;
#132 = APPLICATION_PROTOCOL_DEFINITION ( 'international standard', 'config_control_design', 1994, #242 ) ;
#133 = CARTESIAN_POINT ( 'NONE',  ( 0.0000000000000000000, 0.0000000000000000000, 0.0000000000000000000 ) ) ;
#134 = MECHANICAL_CONTEXT ( 'NONE', #242, 'mechanical' ) ;
#135 = PERSON_AND_ORGANIZATION ( #18, #228 ) ;
#136 = APPLICATION_CONTEXT ( 'configuration controlled 3d designs of mechanical parts and assemblies' ) ;
#137 = DIRECTION ( 'NONE',  ( -3.491481338843133355E-15, 1.219242935835426903E-16, -1.000000000000000000 ) ) ;
#138 = COORDINATED_UNIVERSAL_TIME_OFFSET ( 1, 0, .AHEAD. ) ;
#139 = DIRECTION ( 'NONE',  ( 0.0000000000000000000, -1.000000000000000000, 0.0000000000000000000 ) ) ;
#140 = DATE_TIME_ROLE ( 'classification_date' ) ;
#141 = DIRECTION ( 'NONE',  ( 0.0000000000000000000, 1.000000000000000000, 0.0000000000000000000 ) ) ;
#142 = FACE_OUTER_BOUND ( 'NONE', #113, .T. ) ;
#143 = CIRCLE ( 'NONE', #166, 1.499999999999993783 ) ;
#144 = DIRECTION ( 'NONE',  ( -4.318363482617522516E-31, -1.000000000000000000, -1.219242935835426903E-16 ) ) ;
#145 = APPROVAL_ROLE ( '' ) ;
#146 = EDGE_CURVE ( 'NONE', #74, #74, #56, .T. ) ;
#147 = CIRCLE ( 'NONE', #95, 1.499999999999991562 ) ;
#148 = ADVANCED_FACE ( 'NONE', ( #11 ), #83, .F. ) ;
#149 = ORIENTED_EDGE ( 'NONE', *, *, #243, .T. ) ;
#150 = CARTESIAN_POINT ( 'NONE',  ( 6.695397606605640712E-15, -2.338066694971420013E-16, 1.917638090205028067 ) ) ;
#151 = ORIENTED_EDGE ( 'NONE', *, *, #207, .T. ) ;
#152 =( GEOMETRIC_REPRESENTATION_CONTEXT ( 3 ) GLOBAL_UNCERTAINTY_ASSIGNED_CONTEXT ( ( #10 ) ) GLOBAL_UNIT_ASSIGNED_CONTEXT ( ( #93, #38, #206 ) ) REPRESENTATION_CONTEXT ( 'NONE', 'WORKASPACE' ) );
#153 = CARTESIAN_POINT ( 'NONE',  ( 2.111810160799101291E-14, -1.499999999999992228, 6.048464694068299785 ) ) ;
#154 = LOCAL_TIME ( 10, 16, 28.00000000000000000, #76 ) ;
#155 = DATE_AND_TIME ( #92, #154 ) ;
#156 = ORIENTED_EDGE ( 'NONE', *, *, #204, .T. ) ;
#157 = ORIENTED_EDGE ( 'NONE', *, *, #186, .T. ) ;
#158 = DIRECTION ( 'NONE',  ( 3.491481338843133355E-15, -1.219242935835426903E-16, 1.000000000000000000 ) ) ;
#159 = DATE_AND_TIME ( #8, #223 ) ;
#160 = CARTESIAN_POINT ( 'NONE',  ( 1.326762908760390423E-13, -4.653657836759941941E-15, 38.00000000000000000 ) ) ;
#161 = DIRECTION ( 'NONE',  ( 3.491481338843133355E-15, -1.224646799147353207E-16, 1.000000000000000000 ) ) ;
#162 = AXIS2_PLACEMENT_3D ( 'NONE', #216, #161, #237 ) ;
#163 = SHAPE_DEFINITION_REPRESENTATION ( #14, #100 ) ;
#164 = DIRECTION ( 'NONE',  ( 3.491481338843133355E-15, -1.219242935835426903E-16, 1.000000000000000000 ) ) ;
#165 = FACE_OUTER_BOUND ( 'NONE', #213, .T. ) ;
#166 = AXIS2_PLACEMENT_3D ( 'NONE', #198, #98, #201 ) ;
#167 = CYLINDRICAL_SURFACE ( 'NONE', #68, 1.499999999999991562 ) ;
#168 = AXIS2_PLACEMENT_3D ( 'NONE', #160, #234, #141 ) ;
#169 = APPROVAL_ROLE ( '' ) ;
#170 = ORIENTED_EDGE ( 'NONE', *, *, #207, .F. ) ;
#171 = APPROVAL_PERSON_ORGANIZATION ( #33, #110, #145 ) ;
#172 = DATE_AND_TIME ( #173, #218 ) ;
#173 = CALENDAR_DATE ( 2021, 1, 11 ) ;
#174 = PRODUCT_DEFINITION ( 'UNKNOWN', '', #183, #62 ) ;
#175 = CC_DESIGN_DATE_AND_TIME_ASSIGNMENT ( #172, #57, ( #174 ) ) ;
#176 = CARTESIAN_POINT ( 'NONE',  ( 4.888073874380383542E-15, -1.706940110169596530E-16, 1.399999999999999023 ) ) ;
#177 = APPROVAL_ROLE ( '' ) ;
#178 = AXIS2_PLACEMENT_3D ( 'NONE', #47, #99, #144 ) ;
#179 = PERSON_AND_ORGANIZATION ( #18, #228 ) ;
#180 = FACE_BOUND ( 'NONE', #191, .T. ) ;
#181 = DIRECTION ( 'NONE',  ( -4.256963957985718523E-31, -1.000000000000000000, -1.219242935835428628E-16 ) ) ;
#182 = DATE_AND_TIME ( #229, #185 ) ;
#183 = PRODUCT_DEFINITION_FORMATION_WITH_SPECIFIED_SOURCE ( 'ANY', '', #104, .NOT_KNOWN. ) ;
#184 = EDGE_LOOP ( 'NONE', ( #221 ) ) ;
#185 = LOCAL_TIME ( 10, 16, 28.00000000000000000, #42 ) ;
#186 = EDGE_CURVE ( 'NONE', #54, #54, #147, .T. ) ;
#187 = MANIFOLD_SOLID_BREP ( 'Corps-Déplacer/Copier1[1]', #212 ) ;
#188 = VERTEX_POINT ( 'NONE', #22 ) ;
#189 = CONICAL_SURFACE ( 'NONE', #91, 2.499999999999992895, 0.2617993877991429130 ) ;
#190 = PERSON_AND_ORGANIZATION ( #18, #228 ) ;
#191 = EDGE_LOOP ( 'NONE', ( #149 ) ) ;
#192 = APPROVAL_STATUS ( 'not_yet_approved' ) ;
#193 = EDGE_LOOP ( 'NONE', ( #40 ) ) ;
#194 = APPROVAL_PERSON_ORGANIZATION ( #190, #90, #169 ) ;
#195 = DIRECTION ( 'NONE',  ( 0.0000000000000000000, -1.000000000000000000, 0.0000000000000000000 ) ) ;
#196 = APPROVAL_STATUS ( 'not_yet_approved' ) ;
#197 = DIRECTION ( 'NONE',  ( -4.275831445896958607E-31, -1.000000000000000000, -1.224646799147353207E-16 ) ) ;
#198 = CARTESIAN_POINT ( 'NONE',  ( 1.316288464743861212E-13, -4.616918432785521081E-15, 37.69999999999999574 ) ) ;
#199 = CARTESIAN_POINT ( 'NONE',  ( 3.414848735823254702E-14, -1.192482443420013721E-15, 9.780515501637278675 ) ) ;
#200 = DIRECTION ( 'NONE',  ( 0.0000000000000000000, -1.000000000000000000, 0.0000000000000000000 ) ) ;
#201 = DIRECTION ( 'NONE',  ( 0.0000000000000000000, 1.000000000000000000, 0.0000000000000000000 ) ) ;
#202 = CC_DESIGN_PERSON_AND_ORGANIZATION_ASSIGNMENT ( #135, #102, ( #183 ) ) ;
#203 = CC_DESIGN_PERSON_AND_ORGANIZATION_ASSIGNMENT ( #179, #227, ( #183 ) ) ;
#204 = EDGE_CURVE ( 'NONE', #188, #188, #131, .T. ) ;
#205 = AXIS2_PLACEMENT_3D ( 'NONE', #48, #238, #181 ) ;
#206 =( NAMED_UNIT ( * ) SI_UNIT ( $, .STERADIAN. ) SOLID_ANGLE_UNIT ( ) );
#207 = EDGE_CURVE ( 'NONE', #58, #58, #235, .T. ) ;
#208 = AXIS2_PLACEMENT_3D ( 'NONE', #65, #12, #197 ) ;
#209 = PERSON_AND_ORGANIZATION ( #18, #228 ) ;
#210 = CARTESIAN_POINT ( 'NONE',  ( 1.326762908760390423E-13, 1.199999999999989297, 38.00000000000000000 ) ) ;
#211 = CARTESIAN_POINT ( 'NONE',  ( 1.316288464743861212E-13, 1.499999999999989120, 37.69999999999999574 ) ) ;
#212 = CLOSED_SHELL ( 'NONE', ( #55, #51, #231, #96, #111, #148 ) ) ;
#213 = EDGE_LOOP ( 'NONE', ( #59 ) ) ;
#214 = PLANE ( 'NONE',  #240 ) ;
#215 = CALENDAR_DATE ( 2021, 1, 11 ) ;
#216 = CARTESIAN_POINT ( 'NONE',  ( 4.888073874380385909E-15, -2.023844055306280203E-16, 1.399999999999999689 ) ) ;
#217 = ORIENTED_EDGE ( 'NONE', *, *, #53, .T. ) ;
#218 = LOCAL_TIME ( 10, 16, 28.00000000000000000, #225 ) ;
#219 = CARTESIAN_POINT ( 'NONE',  ( 0.0000000000000000000, 0.0000000000000000000, 0.0000000000000000000 ) ) ;
#220 = DIRECTION ( 'NONE',  ( 3.491481338843133355E-15, -1.219242935835426903E-16, 1.000000000000000000 ) ) ;
#221 = ORIENTED_EDGE ( 'NONE', *, *, #146, .T. ) ;
#222 = DIRECTION ( 'NONE',  ( -3.491481338843133355E-15, 1.224646799147353207E-16, -1.000000000000000000 ) ) ;
#223 = LOCAL_TIME ( 10, 16, 28.00000000000000000, #138 ) ;
#224 = AXIS2_PLACEMENT_3D ( 'NONE', #133, #112, #77 ) ;
#225 = COORDINATED_UNIVERSAL_TIME_OFFSET ( 1, 0, .AHEAD. ) ;
#226 = EDGE_LOOP ( 'NONE', ( #230 ) ) ;
#227 = PERSON_AND_ORGANIZATION_ROLE ( 'creator' ) ;
#228 = ORGANIZATION ( 'UNSPECIFIED', 'UNSPECIFIED', '' ) ;
#229 = CALENDAR_DATE ( 2021, 1, 11 ) ;
#230 = ORIENTED_EDGE ( 'NONE', *, *, #186, .F. ) ;
#231 = ADVANCED_FACE ( 'NONE', ( #123 ), #17, .F. ) ;
#232 = CARTESIAN_POINT ( 'NONE',  ( 4.888073874380385909E-15, -2.023844055306280203E-16, 1.399999999999999689 ) ) ;
#233 = APPROVAL_DATE_TIME ( #182, #110 ) ;
#234 = DIRECTION ( 'NONE',  ( -3.491481338843133355E-15, 1.224646799147353207E-16, -1.000000000000000000 ) ) ;
#235 = CIRCLE ( 'NONE', #32, 0.3249999999999999556 ) ;
#236 = CIRCLE ( 'NONE', #89, 1.199999999999993738 ) ;
#237 = DIRECTION ( 'NONE',  ( -4.275831445896958607E-31, -1.000000000000000000, -1.224646799147353207E-16 ) ) ;
#238 = DIRECTION ( 'NONE',  ( 3.491481338843133355E-15, -1.219242935835426903E-16, 1.000000000000000000 ) ) ;
#239 = ADVANCED_FACE ( 'NONE', ( #125, #165 ), #85, .T. ) ;
#240 = AXIS2_PLACEMENT_3D ( 'NONE', #232, #64, #44 ) ;
#241 = EDGE_LOOP ( 'NONE', ( #217 ) ) ;
#242 = APPLICATION_CONTEXT ( 'configuration controlled 3d designs of mechanical parts and assemblies' ) ;
#243 = EDGE_CURVE ( 'NONE', #60, #60, #236, .T. ) ;
ENDSEC;
END-ISO-10303-21;
