ISO-10303-21;
HEADER;
FILE_DESCRIPTION (( 'STEP AP203' ),
    '1' );
FILE_NAME ('47921.step',
    '2021-11-01T09:16:27',
    ( '' ),
    ( '' ),
    'SwSTEP 2.0',
    'SolidWorks 2019',
    '' );
FILE_SCHEMA (( 'CONFIG_CONTROL_DESIGN' ));
ENDSEC;

DATA;
#1 = APPLICATION_CONTEXT ( 'configuration controlled 3d designs of mechanical parts and assemblies' ) ;
#2 = EDGE_LOOP ( 'NONE', ( #89 ) ) ;
#3 = EDGE_CURVE ( 'NONE', #78, #78, #118, .T. ) ;
#4 = AXIS2_PLACEMENT_3D ( 'NONE', #9, #58, #74 ) ;
#5 = EDGE_LOOP ( 'NONE', ( #165 ) ) ;
#6 = PERSON ( 'UNSPECIFIED', 'UNSPECIFIED', 'UNSPECIFIED', ('UNSPECIFIED'), ('UNSPECIFIED'), ('UNSPECIFIED') ) ;
#7 = EDGE_LOOP ( 'NONE', ( #68 ) ) ;
#8 = CARTESIAN_POINT ( 'NONE',  ( 1.326762908760390423E-13, 1.199999999999989297, 38.00000000000000000 ) ) ;
#9 = CARTESIAN_POINT ( 'NONE',  ( 1.326762908760390423E-13, -4.653657836759941941E-15, 38.00000000000000000 ) ) ;
#10 = AXIS2_PLACEMENT_3D ( 'NONE', #113, #199, #144 ) ;
#11 = DIRECTION ( 'NONE',  ( 0.0000000000000000000, -1.000000000000000000, 0.0000000000000000000 ) ) ;
#12 = FACE_BOUND ( 'NONE', #198, .T. ) ;
#13 = EDGE_CURVE ( 'NONE', #91, #91, #85, .T. ) ;
#14 = CARTESIAN_POINT ( 'NONE',  ( 5.997101338837014041E-15, -2.094218107804334090E-16, 1.717638090205027890 ) ) ;
#15 = AXIS2_PLACEMENT_3D ( 'NONE', #56, #202, #11 ) ;
#16 = CARTESIAN_POINT ( 'NONE',  ( -3.441017545273761538E-30, -0.2750000000000000777, -9.855465950775803604E-16 ) ) ;
#17 = FACE_OUTER_BOUND ( 'NONE', #5, .T. ) ;
#18 = APPROVAL_STATUS ( 'not_yet_approved' ) ;
#19 = PRODUCT_DEFINITION_SHAPE ( 'NONE', 'NONE',  #121 ) ;
#20 = COORDINATED_UNIVERSAL_TIME_OFFSET ( 1, 0, .AHEAD. ) ;
#21 = PERSON_AND_ORGANIZATION ( #6, #86 ) ;
#22 = PERSON_AND_ORGANIZATION ( #6, #86 ) ;
#23 = DATE_AND_TIME ( #191, #83 ) ;
#24 = MANIFOLD_SOLID_BREP ( 'Corps-Déplacer/Copier1[2]', #193 ) ;
#25 = CC_DESIGN_APPROVAL ( #44, ( #149 ) ) ;
#26 = ORIENTED_EDGE ( 'NONE', *, *, #88, .F. ) ;
#27 = CC_DESIGN_PERSON_AND_ORGANIZATION_ASSIGNMENT ( #22, #80, ( #149 ) ) ;
#28 = ADVANCED_FACE ( 'NONE', ( #69, #188 ), #243, .F. ) ;
#29 = APPLICATION_PROTOCOL_DEFINITION ( 'international standard', 'config_control_design', 1994, #64 ) ;
#30 = EDGE_LOOP ( 'NONE', ( #182 ) ) ;
#31 = DIRECTION ( 'NONE',  ( 3.491481338843133355E-15, -1.224646799147353207E-16, 1.000000000000000000 ) ) ;
#32 = LOCAL_TIME ( 10, 16, 27.00000000000000000, #61 ) ;
#33 = DESIGN_CONTEXT ( 'detailed design', #1, 'design' ) ;
#34 = DIRECTION ( 'NONE',  ( 3.491481338843133355E-15, -1.224646799147353207E-16, 1.000000000000000000 ) ) ;
#35 = EDGE_CURVE ( 'NONE', #167, #167, #134, .T. ) ;
#36 = PLANE ( 'NONE',  #162 ) ;
#37 = DIRECTION ( 'NONE',  ( 0.0000000000000000000, 1.000000000000000000, 0.0000000000000000000 ) ) ;
#38 = CIRCLE ( 'NONE', #219, 1.499999999999993783 ) ;
#39 = APPROVAL_PERSON_ORGANIZATION ( #117, #176, #240 ) ;
#40 = APPROVAL_DATE_TIME ( #114, #176 ) ;
#41 = CARTESIAN_POINT ( 'NONE',  ( 1.326762908760390423E-13, -4.653657836759941941E-15, 38.00000000000000000 ) ) ;
#42 = SECURITY_CLASSIFICATION_LEVEL ( 'unclassified' ) ;
#43 = EDGE_CURVE ( 'NONE', #70, #70, #38, .T. ) ;
#44 = APPROVAL ( #18, 'UNSPECIFIED' ) ;
#45 = EDGE_CURVE ( 'NONE', #112, #112, #196, .T. ) ;
#46 = PERSON_AND_ORGANIZATION_ROLE ( 'creator' ) ;
#47 = AXIS2_PLACEMENT_3D ( 'NONE', #41, #96, #184 ) ;
#48 = CARTESIAN_POINT ( 'NONE',  ( 4.189777606611756871E-15, -0.2750000000000004108, 1.199999999999999067 ) ) ;
#49 =( NAMED_UNIT ( * ) PLANE_ANGLE_UNIT ( ) SI_UNIT ( $, .RADIAN. ) );
#50 = FACE_OUTER_BOUND ( 'NONE', #67, .T. ) ;
#51 = VERTEX_POINT ( 'NONE', #95 ) ;
#52 = CARTESIAN_POINT ( 'NONE',  ( 4.189777606611756871E-15, -1.463091523002511100E-16, 1.199999999999999067 ) ) ;
#53 = CONICAL_SURFACE ( 'NONE', #15, 2.499999999999992895, 0.2617993877991429685 ) ;
#54 = DIRECTION ( 'NONE',  ( -4.275831445896958607E-31, -1.000000000000000000, -1.224646799147353207E-16 ) ) ;
#55 = MECHANICAL_CONTEXT ( 'NONE', #64, 'mechanical' ) ;
#56 = CARTESIAN_POINT ( 'NONE',  ( 3.410171037797598412E-14, -1.190848967619841779E-15, 9.767118042015724200 ) ) ;
#57 = PERSON_AND_ORGANIZATION ( #6, #86 ) ;
#58 = DIRECTION ( 'NONE',  ( -3.491481338843133355E-15, 1.224646799147353207E-16, -1.000000000000000000 ) ) ;
#59 = ADVANCED_FACE ( 'NONE', ( #129, #131 ), #206, .T. ) ;
#60 = APPROVAL_STATUS ( 'not_yet_approved' ) ;
#61 = COORDINATED_UNIVERSAL_TIME_OFFSET ( 1, 0, .AHEAD. ) ;
#62 = AXIS2_PLACEMENT_3D ( 'NONE', #92, #187, #175 ) ;
#63 = DATE_TIME_ROLE ( 'creation_date' ) ;
#64 = APPLICATION_CONTEXT ( 'configuration controlled 3d designs of mechanical parts and assemblies' ) ;
#65 = CIRCLE ( 'NONE', #4, 1.199999999999993738 ) ;
#66 = CARTESIAN_POINT ( 'NONE',  ( 4.189777606611756871E-15, -1.463091523002511100E-16, 1.199999999999999067 ) ) ;
#67 = EDGE_LOOP ( 'NONE', ( #214 ) ) ;
#68 = ORIENTED_EDGE ( 'NONE', *, *, #81, .F. ) ;
#69 = FACE_OUTER_BOUND ( 'NONE', #229, .T. ) ;
#70 = VERTEX_POINT ( 'NONE', #145 ) ;
#71 = CARTESIAN_POINT ( 'NONE',  ( 2.107132462773445316E-14, -7.358213092891041451E-16, 6.035067234446746198 ) ) ;
#72 = PLANE ( 'NONE',  #98 ) ;
#73 = LOCAL_TIME ( 10, 16, 27.00000000000000000, #177 ) ;
#74 = DIRECTION ( 'NONE',  ( 0.0000000000000000000, 1.000000000000000000, 0.0000000000000000000 ) ) ;
#75 = DIRECTION ( 'NONE',  ( 3.491481338843133355E-15, -1.219242935835426903E-16, 1.000000000000000000 ) ) ;
#76 = ADVANCED_FACE ( 'NONE', ( #190 ), #201, .F. ) ;
#77 = CALENDAR_DATE ( 2021, 1, 11 ) ;
#78 = VERTEX_POINT ( 'NONE', #48 ) ;
#79 = LOCAL_TIME ( 10, 16, 27.00000000000000000, #20 ) ;
#80 = PERSON_AND_ORGANIZATION_ROLE ( 'design_supplier' ) ;
#81 = EDGE_CURVE ( 'NONE', #51, #51, #226, .T. ) ;
#82 = PERSON_AND_ORGANIZATION ( #6, #86 ) ;
#83 = LOCAL_TIME ( 10, 16, 27.00000000000000000, #100 ) ;
#84 = APPROVAL ( #60, 'UNSPECIFIED' ) ;
#85 = CIRCLE ( 'NONE', #141, 1.499999999999991562 ) ;
#86 = ORGANIZATION ( 'UNSPECIFIED', 'UNSPECIFIED', '' ) ;
#87 = EDGE_LOOP ( 'NONE', ( #124 ) ) ;
#88 = EDGE_CURVE ( 'NONE', #183, #183, #65, .T. ) ;
#89 = ORIENTED_EDGE ( 'NONE', *, *, #43, .F. ) ;
#90 = CARTESIAN_POINT ( 'NONE',  ( 4.189777606611758449E-15, -1.734723475976811532E-16, 1.199999999999999734 ) ) ;
#91 = VERTEX_POINT ( 'NONE', #232 ) ;
#92 = CARTESIAN_POINT ( 'NONE',  ( 0.0000000000000000000, 0.0000000000000000000, 0.0000000000000000000 ) ) ;
#93 = CARTESIAN_POINT ( 'NONE',  ( -1.282754905350004587E-30, 4.499298539707956128E-32, -3.673956068672651857E-16 ) ) ;
#94 = CC_DESIGN_SECURITY_CLASSIFICATION ( #105, ( #149 ) ) ;
#95 = CARTESIAN_POINT ( 'NONE',  ( 4.189777606611756871E-15, -0.2750000000000004108, 1.199999999999999067 ) ) ;
#96 = DIRECTION ( 'NONE',  ( -3.491481338843133355E-15, 1.224646799147353207E-16, -1.000000000000000000 ) ) ;
#97 = APPROVAL_ROLE ( '' ) ;
#98 = AXIS2_PLACEMENT_3D ( 'NONE', #90, #168, #54 ) ;
#99 = COORDINATED_UNIVERSAL_TIME_OFFSET ( 1, 0, .AHEAD. ) ;
#100 = COORDINATED_UNIVERSAL_TIME_OFFSET ( 1, 0, .AHEAD. ) ;
#101 = ORIENTED_EDGE ( 'NONE', *, *, #88, .T. ) ;
#102 =( GEOMETRIC_REPRESENTATION_CONTEXT ( 3 ) GLOBAL_UNCERTAINTY_ASSIGNED_CONTEXT ( ( #128 ) ) GLOBAL_UNIT_ASSIGNED_CONTEXT ( ( #143, #49, #235 ) ) REPRESENTATION_CONTEXT ( 'NONE', 'WORKASPACE' ) );
#103 = EDGE_LOOP ( 'NONE', ( #213 ) ) ;
#104 = EDGE_LOOP ( 'NONE', ( #228 ) ) ;
#105 = SECURITY_CLASSIFICATION ( '', '', #42 ) ;
#106 = MANIFOLD_SOLID_BREP ( 'Corps-Déplacer/Copier1[1]', #148 ) ;
#107 = DIRECTION ( 'NONE',  ( -3.491481338843133355E-15, 1.219242935835426903E-16, -1.000000000000000000 ) ) ;
#108 = DIRECTION ( 'NONE',  ( 0.0000000000000000000, -1.000000000000000000, 0.0000000000000000000 ) ) ;
#109 = CARTESIAN_POINT ( 'NONE',  ( 0.0000000000000000000, 0.0000000000000000000, 0.0000000000000000000 ) ) ;
#110 = DIRECTION ( 'NONE',  ( 0.0000000000000000000, -1.000000000000000000, 0.0000000000000000000 ) ) ;
#111 = ADVANCED_FACE ( 'NONE', ( #12, #50 ), #53, .T. ) ;
#112 = VERTEX_POINT ( 'NONE', #16 ) ;
#113 = CARTESIAN_POINT ( 'NONE',  ( -3.323951036429154668E-30, 1.160740507228921495E-31, -9.520174143421060861E-16 ) ) ;
#114 = DATE_AND_TIME ( #77, #73 ) ;
#115 = DIRECTION ( 'NONE',  ( 4.275831445896958607E-31, 1.000000000000000000, 1.224646799147353207E-16 ) ) ;
#116 = CALENDAR_DATE ( 2021, 1, 11 ) ;
#117 = PERSON_AND_ORGANIZATION ( #6, #86 ) ;
#118 = CIRCLE ( 'NONE', #200, 0.2750000000000002442 ) ;
#119 = CC_DESIGN_APPROVAL ( #84, ( #105 ) ) ;
#120 = ORIENTED_EDGE ( 'NONE', *, *, #35, .T. ) ;
#121 = PRODUCT_DEFINITION ( 'UNKNOWN', '', #149, #33 ) ;
#122 = ADVANCED_FACE ( 'NONE', ( #234 ), #36, .F. ) ;
#123 = ORIENTED_EDGE ( 'NONE', *, *, #81, .T. ) ;
#124 = ORIENTED_EDGE ( 'NONE', *, *, #45, .F. ) ;
#125 = CC_DESIGN_DATE_AND_TIME_ASSIGNMENT ( #241, #222, ( #105 ) ) ;
#126 = CARTESIAN_POINT ( 'NONE',  ( 5.997101338837014041E-15, -0.3431483474218605112, 1.717638090205027890 ) ) ;
#127 = DIRECTION ( 'NONE',  ( 0.0000000000000000000, -1.000000000000000000, 0.0000000000000000000 ) ) ;
#128 = UNCERTAINTY_MEASURE_WITH_UNIT (LENGTH_MEASURE( 1.000000000000000082E-05 ), #143, 'distance_accuracy_value', 'NONE');
#129 = FACE_OUTER_BOUND ( 'NONE', #30, .T. ) ;
#130 = CC_DESIGN_DATE_AND_TIME_ASSIGNMENT ( #192, #63, ( #121 ) ) ;
#131 = FACE_OUTER_BOUND ( 'NONE', #104, .T. ) ;
#132 = ADVANCED_FACE ( 'NONE', ( #17, #186 ), #154, .T. ) ;
#133 = CARTESIAN_POINT ( 'NONE',  ( 4.189777606611756871E-15, 0.0000000000000000000, 1.199999999999999067 ) ) ;
#134 = CIRCLE ( 'NONE', #138, 0.3431483474218602892 ) ;
#135 = DIRECTION ( 'NONE',  ( 4.275831445896958607E-31, 1.000000000000000000, 1.224646799147353207E-16 ) ) ;
#136 = CALENDAR_DATE ( 2021, 1, 11 ) ;
#137 = APPROVAL_DATE_TIME ( #225, #84 ) ;
#138 = AXIS2_PLACEMENT_3D ( 'NONE', #14, #203, #223 ) ;
#139 = DIRECTION ( 'NONE',  ( -3.491481338843133355E-15, 1.224646799147353207E-16, -1.000000000000000000 ) ) ;
#140 = AXIS2_PLACEMENT_3D ( 'NONE', #178, #139, #115 ) ;
#141 = AXIS2_PLACEMENT_3D ( 'NONE', #71, #107, #127 ) ;
#142 = AXIS2_PLACEMENT_3D ( 'NONE', #109, #172, #197 ) ;
#143 =( LENGTH_UNIT ( ) NAMED_UNIT ( * ) SI_UNIT ( .MILLI., .METRE. ) );
#144 = DIRECTION ( 'NONE',  ( -4.256963957985714144E-31, -1.000000000000000000, -1.219242935835423944E-16 ) ) ;
#145 = CARTESIAN_POINT ( 'NONE',  ( 1.316288464743861212E-13, 1.499999999999989120, 37.69999999999999574 ) ) ;
#146 = FACE_BOUND ( 'NONE', #164, .T. ) ;
#147 = CC_DESIGN_PERSON_AND_ORGANIZATION_ASSIGNMENT ( #57, #46, ( #121 ) ) ;
#148 = CLOSED_SHELL ( 'NONE', ( #132, #150, #236, #111, #28, #76 ) ) ;
#149 = PRODUCT_DEFINITION_FORMATION_WITH_SPECIFIED_SOURCE ( 'ANY', '', #153, .NOT_KNOWN. ) ;
#150 = ADVANCED_FACE ( 'NONE', ( #220, #146 ), #210, .T. ) ;
#151 = DIRECTION ( 'NONE',  ( -4.319081605712631913E-31, -1.000000000000000000, -1.219242935835426903E-16 ) ) ;
#152 = DIRECTION ( 'NONE',  ( -4.275831445896958607E-31, -1.000000000000000000, -1.224646799147353207E-16 ) ) ;
#153 = PRODUCT ( '47921', '47921', '', ( #55 ) ) ;
#154 = CYLINDRICAL_SURFACE ( 'NONE', #209, 1.499999999999991562 ) ;
#155 = PERSON_AND_ORGANIZATION_ROLE ( 'classification_officer' ) ;
#156 = CC_DESIGN_APPROVAL ( #176, ( #121 ) ) ;
#157 = PRODUCT_RELATED_PRODUCT_CATEGORY ( 'detail', '', ( #153 ) ) ;
#158 = PERSON_AND_ORGANIZATION_ROLE ( 'creator' ) ;
#159 = PLANE ( 'NONE',  #140 ) ;
#160 = CALENDAR_DATE ( 2021, 1, 11 ) ;
#161 = AXIS2_PLACEMENT_3D ( 'NONE', #52, #237, #110 ) ;
#162 = AXIS2_PLACEMENT_3D ( 'NONE', #93, #31, #152 ) ;
#163 = EDGE_LOOP ( 'NONE', ( #227 ) ) ;
#164 = EDGE_LOOP ( 'NONE', ( #101 ) ) ;
#165 = ORIENTED_EDGE ( 'NONE', *, *, #43, .T. ) ;
#166 = ADVANCED_FACE ( 'NONE', ( #218 ), #72, .T. ) ;
#167 = VERTEX_POINT ( 'NONE', #126 ) ;
#168 = DIRECTION ( 'NONE',  ( 3.491481338843133355E-15, -1.224646799147353207E-16, 1.000000000000000000 ) ) ;
#169 = DIRECTION ( 'NONE',  ( -4.275831445896958607E-31, -1.000000000000000000, -1.224646799147353207E-16 ) ) ;
#170 = CC_DESIGN_PERSON_AND_ORGANIZATION_ASSIGNMENT ( #174, #238, ( #153 ) ) ;
#171 = CARTESIAN_POINT ( 'NONE',  ( 1.316288464743861212E-13, -4.616918432785521081E-15, 37.69999999999999574 ) ) ;
#172 = DIRECTION ( 'NONE',  ( 0.0000000000000000000, 0.0000000000000000000, 1.000000000000000000 ) ) ;
#173 = CARTESIAN_POINT ( 'NONE',  ( 4.189777606611758449E-15, -1.734723475976811532E-16, 1.199999999999999734 ) ) ;
#174 = PERSON_AND_ORGANIZATION ( #6, #86 ) ;
#175 = DIRECTION ( 'NONE',  ( -4.256963957985709765E-31, -1.000000000000000000, -1.219242935835426903E-16 ) ) ;
#176 = APPROVAL ( #224, 'UNSPECIFIED' ) ;
#177 = COORDINATED_UNIVERSAL_TIME_OFFSET ( 1, 0, .AHEAD. ) ;
#178 = CARTESIAN_POINT ( 'NONE',  ( 1.326762908760390423E-13, 8.998558695971030697E-33, 38.00000000000000000 ) ) ;
#179 = APPROVAL_PERSON_ORGANIZATION ( #82, #84, #97 ) ;
#180 = ORIENTED_EDGE ( 'NONE', *, *, #35, .F. ) ;
#181 = AXIS2_PLACEMENT_3D ( 'NONE', #173, #34, #169 ) ;
#182 = ORIENTED_EDGE ( 'NONE', *, *, #45, .T. ) ;
#183 = VERTEX_POINT ( 'NONE', #8 ) ;
#184 = DIRECTION ( 'NONE',  ( 0.0000000000000000000, 1.000000000000000000, 0.0000000000000000000 ) ) ;
#185 = LOCAL_TIME ( 10, 16, 27.00000000000000000, #99 ) ;
#186 = FACE_OUTER_BOUND ( 'NONE', #103, .T. ) ;
#187 = DIRECTION ( 'NONE',  ( 3.491481338843133355E-15, -1.219242935835426903E-16, 1.000000000000000000 ) ) ;
#188 = FACE_OUTER_BOUND ( 'NONE', #216, .T. ) ;
#189 = APPROVAL_PERSON_ORGANIZATION ( #207, #44, #194 ) ;
#190 = FACE_OUTER_BOUND ( 'NONE', #7, .T. ) ;
#191 = CALENDAR_DATE ( 2021, 1, 11 ) ;
#192 = DATE_AND_TIME ( #116, #185 ) ;
#193 = CLOSED_SHELL ( 'NONE', ( #166, #59, #122 ) ) ;
#194 = APPROVAL_ROLE ( '' ) ;
#195 = APPLICATION_PROTOCOL_DEFINITION ( 'international standard', 'config_control_design', 1994, #1 ) ;
#196 = CIRCLE ( 'NONE', #10, 0.2750000000000000777 ) ;
#197 = DIRECTION ( 'NONE',  ( 1.000000000000000000, 0.0000000000000000000, 0.0000000000000000000 ) ) ;
#198 = EDGE_LOOP ( 'NONE', ( #120 ) ) ;
#199 = DIRECTION ( 'NONE',  ( 3.491481338843133355E-15, -1.219242935835426903E-16, 1.000000000000000000 ) ) ;
#200 = AXIS2_PLACEMENT_3D ( 'NONE', #66, #239, #108 ) ;
#201 = PLANE ( 'NONE',  #181 ) ;
#202 = DIRECTION ( 'NONE',  ( 3.491481338843133355E-15, -1.219242935835426903E-16, 1.000000000000000000 ) ) ;
#203 = DIRECTION ( 'NONE',  ( 3.491481338843133355E-15, -1.219242935835426903E-16, 1.000000000000000000 ) ) ;
#204 = AXIS2_PLACEMENT_3D ( 'NONE', #133, #75, #151 ) ;
#205 = APPROVAL_DATE_TIME ( #23, #44 ) ;
#206 = CYLINDRICAL_SURFACE ( 'NONE', #62, 0.2750000000000001887 ) ;
#207 = PERSON_AND_ORGANIZATION ( #6, #86 ) ;
#208 = PERSON_AND_ORGANIZATION ( #6, #86 ) ;
#209 = AXIS2_PLACEMENT_3D ( 'NONE', #233, #221, #135 ) ;
#210 = CONICAL_SURFACE ( 'NONE', #47, 1.199999999999993738, 0.7853981633974453924 ) ;
#211 = ADVANCED_BREP_SHAPE_REPRESENTATION ( '47921', ( #106, #24, #142 ), #102 ) ;
#212 = CC_DESIGN_PERSON_AND_ORGANIZATION_ASSIGNMENT ( #21, #155, ( #105 ) ) ;
#213 = ORIENTED_EDGE ( 'NONE', *, *, #13, .F. ) ;
#214 = ORIENTED_EDGE ( 'NONE', *, *, #13, .T. ) ;
#215 = EDGE_LOOP ( 'NONE', ( #26 ) ) ;
#216 = EDGE_LOOP ( 'NONE', ( #180 ) ) ;
#217 = DIRECTION ( 'NONE',  ( -3.491481338843133355E-15, 1.224646799147353207E-16, -1.000000000000000000 ) ) ;
#218 = FACE_OUTER_BOUND ( 'NONE', #163, .T. ) ;
#219 = AXIS2_PLACEMENT_3D ( 'NONE', #171, #217, #37 ) ;
#220 = FACE_OUTER_BOUND ( 'NONE', #2, .T. ) ;
#221 = DIRECTION ( 'NONE',  ( -3.491481338843133355E-15, 1.224646799147353207E-16, -1.000000000000000000 ) ) ;
#222 = DATE_TIME_ROLE ( 'classification_date' ) ;
#223 = DIRECTION ( 'NONE',  ( 0.0000000000000000000, -1.000000000000000000, 0.0000000000000000000 ) ) ;
#224 = APPROVAL_STATUS ( 'not_yet_approved' ) ;
#225 = DATE_AND_TIME ( #160, #32 ) ;
#226 = CIRCLE ( 'NONE', #161, 0.2750000000000002442 ) ;
#227 = ORIENTED_EDGE ( 'NONE', *, *, #3, .T. ) ;
#228 = ORIENTED_EDGE ( 'NONE', *, *, #3, .F. ) ;
#229 = EDGE_LOOP ( 'NONE', ( #123 ) ) ;
#230 = FACE_OUTER_BOUND ( 'NONE', #215, .T. ) ;
#231 = CC_DESIGN_PERSON_AND_ORGANIZATION_ASSIGNMENT ( #208, #158, ( #149 ) ) ;
#232 = CARTESIAN_POINT ( 'NONE',  ( 2.107132462773445316E-14, -1.499999999999992228, 6.035067234446746198 ) ) ;
#233 = CARTESIAN_POINT ( 'NONE',  ( 0.0000000000000000000, 0.0000000000000000000, 0.0000000000000000000 ) ) ;
#234 = FACE_OUTER_BOUND ( 'NONE', #87, .T. ) ;
#235 =( NAMED_UNIT ( * ) SI_UNIT ( $, .STERADIAN. ) SOLID_ANGLE_UNIT ( ) );
#236 = ADVANCED_FACE ( 'NONE', ( #230 ), #159, .F. ) ;
#237 = DIRECTION ( 'NONE',  ( 3.491481338843133355E-15, -1.219242935835426903E-16, 1.000000000000000000 ) ) ;
#238 = PERSON_AND_ORGANIZATION_ROLE ( 'design_owner' ) ;
#239 = DIRECTION ( 'NONE',  ( 3.491481338843133355E-15, -1.219242935835426903E-16, 1.000000000000000000 ) ) ;
#240 = APPROVAL_ROLE ( '' ) ;
#241 = DATE_AND_TIME ( #136, #79 ) ;
#242 = SHAPE_DEFINITION_REPRESENTATION ( #19, #211 ) ;
#243 = TOROIDAL_SURFACE ( 'NONE', #204, 2.274999999999999911, 2.000000000000000000 ) ;
ENDSEC;
END-ISO-10303-21;
