ISO-10303-21;
HEADER;
FILE_DESCRIPTION (( 'STEP AP203' ),
    '1' );
FILE_NAME ('47918.step',
    '2021-11-01T09:16:26',
    ( '' ),
    ( '' ),
    'SwSTEP 2.0',
    'SolidWorks 2019',
    '' );
FILE_SCHEMA (( 'CONFIG_CONTROL_DESIGN' ));
ENDSEC;

DATA;
#1 = DATE_AND_TIME ( #189, #25 ) ;
#2 = CIRCLE ( 'NONE', #78, 0.2249999999999999500 ) ;
#3 = EDGE_LOOP ( 'NONE', ( #65 ) ) ;
#4 = DATE_TIME_ROLE ( 'classification_date' ) ;
#5 = CALENDAR_DATE ( 2021, 1, 11 ) ;
#6 = APPROVAL_STATUS ( 'not_yet_approved' ) ;
#7 = EDGE_LOOP ( 'NONE', ( #159 ) ) ;
#8 = AXIS2_PLACEMENT_3D ( 'NONE', #37, #108, #146 ) ;
#9 = CC_DESIGN_APPROVAL ( #116, ( #62 ) ) ;
#10 = EDGE_CURVE ( 'NONE', #77, #77, #187, .T. ) ;
#11 = DIRECTION ( 'NONE',  ( 0.0000000000000000000, 1.000000000000000000, 0.0000000000000000000 ) ) ;
#12 = DIRECTION ( 'NONE',  ( 0.0000000000000000000, -1.000000000000000000, 0.0000000000000000000 ) ) ;
#13 = APPROVAL_STATUS ( 'not_yet_approved' ) ;
#14 = DIRECTION ( 'NONE',  ( -3.491481338843133355E-15, 1.224646799147353207E-16, -1.000000000000000000 ) ) ;
#15 = CALENDAR_DATE ( 2021, 1, 11 ) ;
#16 = CIRCLE ( 'NONE', #111, 0.2931483474218601337 ) ;
#17 = FACE_OUTER_BOUND ( 'NONE', #230, .T. ) ;
#18 = CARTESIAN_POINT ( 'NONE',  ( 2.102454764747791235E-14, -1.499999999999992228, 6.021669774825197941 ) ) ;
#19 = MANIFOLD_SOLID_BREP ( 'Corps-Déplacer/Copier1[1]', #200 ) ;
#20 = AXIS2_PLACEMENT_3D ( 'NONE', #152, #57, #134 ) ;
#21 = PRODUCT ( '47918', '47918', '', ( #213 ) ) ;
#22 = ORIENTED_EDGE ( 'NONE', *, *, #178, .T. ) ;
#23 = CALENDAR_DATE ( 2021, 1, 11 ) ;
#24 = AXIS2_PLACEMENT_3D ( 'NONE', #89, #92, #12 ) ;
#25 = LOCAL_TIME ( 10, 16, 26.00000000000000000, #136 ) ;
#26 = ORIENTED_EDGE ( 'NONE', *, *, #207, .T. ) ;
#27 = CARTESIAN_POINT ( 'NONE',  ( 5.298805071068388947E-15, -0.2931483474218603003, 1.517638090205028378 ) ) ;
#28 = CARTESIAN_POINT ( 'NONE',  ( 3.491481338843130989E-15, -1.219242935835426163E-16, 0.9999999999999993339 ) ) ;
#29 = DATE_AND_TIME ( #100, #195 ) ;
#30 = APPROVAL ( #13, 'UNSPECIFIED' ) ;
#31 = PRODUCT_DEFINITION ( 'UNKNOWN', '', #62, #145 ) ;
#32 = CARTESIAN_POINT ( 'NONE',  ( 0.0000000000000000000, 0.0000000000000000000, 0.0000000000000000000 ) ) ;
#33 = CC_DESIGN_PERSON_AND_ORGANIZATION_ASSIGNMENT ( #44, #115, ( #86 ) ) ;
#34 = CARTESIAN_POINT ( 'NONE',  ( 1.316288464743861212E-13, -4.616918432785521081E-15, 37.69999999999999574 ) ) ;
#35 = CARTESIAN_POINT ( 'NONE',  ( 1.326762908760390423E-13, 8.998558695971030697E-33, 38.00000000000000000 ) ) ;
#36 = AXIS2_PLACEMENT_3D ( 'NONE', #71, #206, #104 ) ;
#37 = CARTESIAN_POINT ( 'NONE',  ( 3.491481338843130989E-15, 0.0000000000000000000, 0.9999999999999993339 ) ) ;
#38 = CARTESIAN_POINT ( 'NONE',  ( 1.316288464743861212E-13, 1.499999999999989120, 37.69999999999999574 ) ) ;
#39 = CC_DESIGN_PERSON_AND_ORGANIZATION_ASSIGNMENT ( #158, #231, ( #62 ) ) ;
#40 = APPROVAL_PERSON_ORGANIZATION ( #176, #50, #45 ) ;
#41 = EDGE_LOOP ( 'NONE', ( #60 ) ) ;
#42 = VERTEX_POINT ( 'NONE', #161 ) ;
#43 = EDGE_LOOP ( 'NONE', ( #117 ) ) ;
#44 = PERSON_AND_ORGANIZATION ( #53, #82 ) ;
#45 = APPROVAL_ROLE ( '' ) ;
#46 = ADVANCED_FACE ( 'NONE', ( #126 ), #171, .F. ) ;
#47 = FACE_OUTER_BOUND ( 'NONE', #112, .T. ) ;
#48 = DIRECTION ( 'NONE',  ( 3.491481338843133355E-15, -1.219242935835426903E-16, 1.000000000000000000 ) ) ;
#49 = LOCAL_TIME ( 10, 16, 26.00000000000000000, #191 ) ;
#50 = APPROVAL ( #235, 'UNSPECIFIED' ) ;
#51 = DIRECTION ( 'NONE',  ( 3.491481338843133355E-15, -1.224646799147353207E-16, 1.000000000000000000 ) ) ;
#52 = DIRECTION ( 'NONE',  ( -3.491481338843133355E-15, 1.224646799147353207E-16, -1.000000000000000000 ) ) ;
#53 = PERSON ( 'UNSPECIFIED', 'UNSPECIFIED', 'UNSPECIFIED', ('UNSPECIFIED'), ('UNSPECIFIED'), ('UNSPECIFIED') ) ;
#54 = DIRECTION ( 'NONE',  ( 0.0000000000000000000, 1.000000000000000000, 0.0000000000000000000 ) ) ;
#55 = AXIS2_PLACEMENT_3D ( 'NONE', #160, #157, #121 ) ;
#56 = PRODUCT_RELATED_PRODUCT_CATEGORY ( 'detail', '', ( #21 ) ) ;
#57 = DIRECTION ( 'NONE',  ( 3.491481338843133355E-15, -1.219242935835426903E-16, 1.000000000000000000 ) ) ;
#58 = ADVANCED_FACE ( 'NONE', ( #87, #150 ), #142, .T. ) ;
#59 = EDGE_CURVE ( 'NONE', #208, #208, #90, .T. ) ;
#60 = ORIENTED_EDGE ( 'NONE', *, *, #98, .F. ) ;
#61 = DATE_AND_TIME ( #5, #132 ) ;
#62 = PRODUCT_DEFINITION_FORMATION_WITH_SPECIFIED_SOURCE ( 'ANY', '', #21, .NOT_KNOWN. ) ;
#63 = EDGE_LOOP ( 'NONE', ( #190 ) ) ;
#64 = PERSON_AND_ORGANIZATION ( #53, #82 ) ;
#65 = ORIENTED_EDGE ( 'NONE', *, *, #59, .T. ) ;
#66 = PERSON_AND_ORGANIZATION_ROLE ( 'creator' ) ;
#67 = CIRCLE ( 'NONE', #205, 1.499999999999993783 ) ;
#68 = APPROVAL_ROLE ( '' ) ;
#69 = DIRECTION ( 'NONE',  ( 0.0000000000000000000, 1.000000000000000000, 0.0000000000000000000 ) ) ;
#70 = DIRECTION ( 'NONE',  ( 3.491481338843133355E-15, -1.224646799147353207E-16, 1.000000000000000000 ) ) ;
#71 = CARTESIAN_POINT ( 'NONE',  ( 3.405493339771944015E-14, -1.189215491819670428E-15, 9.753720582394175054 ) ) ;
#72 = SHAPE_DEFINITION_REPRESENTATION ( #129, #118 ) ;
#73 = FACE_OUTER_BOUND ( 'NONE', #233, .T. ) ;
#74 = DIRECTION ( 'NONE',  ( 3.491481338843133355E-15, -1.219242935835426903E-16, 1.000000000000000000 ) ) ;
#75 = CC_DESIGN_DATE_AND_TIME_ASSIGNMENT ( #29, #101, ( #31 ) ) ;
#76 = ADVANCED_FACE ( 'NONE', ( #186, #225 ), #95, .T. ) ;
#77 = VERTEX_POINT ( 'NONE', #226 ) ;
#78 = AXIS2_PLACEMENT_3D ( 'NONE', #103, #149, #127 ) ;
#79 = CC_DESIGN_PERSON_AND_ORGANIZATION_ASSIGNMENT ( #64, #138, ( #62 ) ) ;
#80 = APPROVAL_DATE_TIME ( #1, #116 ) ;
#81 = AXIS2_PLACEMENT_3D ( 'NONE', #240, #51, #180 ) ;
#82 = ORGANIZATION ( 'UNSPECIFIED', 'UNSPECIFIED', '' ) ;
#83 = EDGE_LOOP ( 'NONE', ( #137 ) ) ;
#84 = VERTEX_POINT ( 'NONE', #27 ) ;
#85 =( NAMED_UNIT ( * ) PLANE_ANGLE_UNIT ( ) SI_UNIT ( $, .RADIAN. ) );
#86 = SECURITY_CLASSIFICATION ( '', '', #212 ) ;
#87 = FACE_OUTER_BOUND ( 'NONE', #41, .T. ) ;
#88 = PLANE ( 'NONE',  #120 ) ;
#89 = CARTESIAN_POINT ( 'NONE',  ( 2.102454764747791235E-14, -7.341878334889329916E-16, 6.021669774825197941 ) ) ;
#90 = CIRCLE ( 'NONE', #24, 1.499999999999991562 ) ;
#91 = DIRECTION ( 'NONE',  ( 3.491481338843133355E-15, -1.224646799147353207E-16, 1.000000000000000000 ) ) ;
#92 = DIRECTION ( 'NONE',  ( -3.491481338843133355E-15, 1.219242935835426903E-16, -1.000000000000000000 ) ) ;
#93 = ADVANCED_FACE ( 'NONE', ( #73, #47 ), #193, .F. ) ;
#94 = DIRECTION ( 'NONE',  ( 0.0000000000000000000, -1.000000000000000000, 0.0000000000000000000 ) ) ;
#95 = CONICAL_SURFACE ( 'NONE', #36, 2.499999999999992450, 0.2617993877991429130 ) ;
#96 = CC_DESIGN_PERSON_AND_ORGANIZATION_ASSIGNMENT ( #174, #141, ( #21 ) ) ;
#97 = DATE_AND_TIME ( #23, #49 ) ;
#98 = EDGE_CURVE ( 'NONE', #242, #242, #67, .T. ) ;
#99 = EDGE_LOOP ( 'NONE', ( #175 ) ) ;
#100 = CALENDAR_DATE ( 2021, 1, 11 ) ;
#101 = DATE_TIME_ROLE ( 'creation_date' ) ;
#102 = COORDINATED_UNIVERSAL_TIME_OFFSET ( 1, 0, .AHEAD. ) ;
#103 = CARTESIAN_POINT ( 'NONE',  ( -3.302666216639226592E-30, 1.153307740545998597E-31, -9.459211996629289812E-16 ) ) ;
#104 = DIRECTION ( 'NONE',  ( 0.0000000000000000000, -1.000000000000000000, 0.0000000000000000000 ) ) ;
#105 = CYLINDRICAL_SURFACE ( 'NONE', #234, 0.2250000000000000056 ) ;
#106 = DIRECTION ( 'NONE',  ( -3.491481338843133355E-15, 1.224646799147353207E-16, -1.000000000000000000 ) ) ;
#107 = ADVANCED_FACE ( 'NONE', ( #167, #17 ), #105, .T. ) ;
#108 = DIRECTION ( 'NONE',  ( 3.491481338843133355E-15, -1.219242935835426903E-16, 1.000000000000000000 ) ) ;
#109 = VERTEX_POINT ( 'NONE', #172 ) ;
#110 = ADVANCED_FACE ( 'NONE', ( #182 ), #165, .T. ) ;
#111 = AXIS2_PLACEMENT_3D ( 'NONE', #218, #48, #94 ) ;
#112 = EDGE_LOOP ( 'NONE', ( #196 ) ) ;
#113 = PERSON_AND_ORGANIZATION ( #53, #82 ) ;
#114 = ORIENTED_EDGE ( 'NONE', *, *, #207, .F. ) ;
#115 = PERSON_AND_ORGANIZATION_ROLE ( 'classification_officer' ) ;
#116 = APPROVAL ( #6, 'UNSPECIFIED' ) ;
#117 = ORIENTED_EDGE ( 'NONE', *, *, #10, .T. ) ;
#118 = ADVANCED_BREP_SHAPE_REPRESENTATION ( '47918', ( #19, #185, #55 ), #209 ) ;
#119 = COORDINATED_UNIVERSAL_TIME_OFFSET ( 1, 0, .AHEAD. ) ;
#120 = AXIS2_PLACEMENT_3D ( 'NONE', #181, #70, #144 ) ;
#121 = DIRECTION ( 'NONE',  ( 1.000000000000000000, 0.0000000000000000000, 0.0000000000000000000 ) ) ;
#122 = PLANE ( 'NONE',  #124 ) ;
#123 = EDGE_CURVE ( 'NONE', #109, #109, #130, .T. ) ;
#124 = AXIS2_PLACEMENT_3D ( 'NONE', #35, #14, #222 ) ;
#125 = CYLINDRICAL_SURFACE ( 'NONE', #227, 1.499999999999991562 ) ;
#126 = FACE_OUTER_BOUND ( 'NONE', #63, .T. ) ;
#127 = DIRECTION ( 'NONE',  ( -4.256963957985710640E-31, -1.000000000000000000, -1.219242935835426903E-16 ) ) ;
#128 = COORDINATED_UNIVERSAL_TIME_OFFSET ( 1, 0, .AHEAD. ) ;
#129 = PRODUCT_DEFINITION_SHAPE ( 'NONE', 'NONE',  #31 ) ;
#130 = CIRCLE ( 'NONE', #151, 1.199999999999993738 ) ;
#131 = DIRECTION ( 'NONE',  ( -4.256963957985708889E-31, -1.000000000000000000, -1.219242935835426656E-16 ) ) ;
#132 = LOCAL_TIME ( 10, 16, 26.00000000000000000, #102 ) ;
#133 = APPROVAL_DATE_TIME ( #224, #30 ) ;
#134 = DIRECTION ( 'NONE',  ( 0.0000000000000000000, -1.000000000000000000, 0.0000000000000000000 ) ) ;
#135 = APPROVAL_PERSON_ORGANIZATION ( #241, #30, #204 ) ;
#136 = COORDINATED_UNIVERSAL_TIME_OFFSET ( 1, 0, .AHEAD. ) ;
#137 = ORIENTED_EDGE ( 'NONE', *, *, #98, .T. ) ;
#138 = PERSON_AND_ORGANIZATION_ROLE ( 'design_supplier' ) ;
#139 = APPLICATION_PROTOCOL_DEFINITION ( 'international standard', 'config_control_design', 1994, #223 ) ;
#140 = ORIENTED_EDGE ( 'NONE', *, *, #123, .F. ) ;
#141 = PERSON_AND_ORGANIZATION_ROLE ( 'design_owner' ) ;
#142 = CONICAL_SURFACE ( 'NONE', #169, 1.199999999999993738, 0.7853981633974453924 ) ;
#143 = FACE_OUTER_BOUND ( 'NONE', #210, .T. ) ;
#144 = DIRECTION ( 'NONE',  ( -4.275831445896958607E-31, -1.000000000000000000, -1.224646799147353207E-16 ) ) ;
#145 = DESIGN_CONTEXT ( 'detailed design', #199, 'design' ) ;
#146 = DIRECTION ( 'NONE',  ( -4.319816725804075743E-31, -1.000000000000000000, -1.219242935835426903E-16 ) ) ;
#147 = CC_DESIGN_DATE_AND_TIME_ASSIGNMENT ( #97, #4, ( #86 ) ) ;
#148 = ADVANCED_FACE ( 'NONE', ( #143 ), #122, .F. ) ;
#149 = DIRECTION ( 'NONE',  ( 3.491481338843133355E-15, -1.219242935835426903E-16, 1.000000000000000000 ) ) ;
#150 = FACE_BOUND ( 'NONE', #7, .T. ) ;
#151 = AXIS2_PLACEMENT_3D ( 'NONE', #201, #52, #69 ) ;
#152 = CARTESIAN_POINT ( 'NONE',  ( 3.491481338843130989E-15, -1.219242935835426163E-16, 0.9999999999999993339 ) ) ;
#153 = CC_DESIGN_APPROVAL ( #30, ( #86 ) ) ;
#154 = CIRCLE ( 'NONE', #20, 0.2250000000000000611 ) ;
#155 = ADVANCED_FACE ( 'NONE', ( #217, #170 ), #125, .T. ) ;
#156 = ORIENTED_EDGE ( 'NONE', *, *, #10, .F. ) ;
#157 = DIRECTION ( 'NONE',  ( 0.0000000000000000000, 0.0000000000000000000, 1.000000000000000000 ) ) ;
#158 = PERSON_AND_ORGANIZATION ( #53, #82 ) ;
#159 = ORIENTED_EDGE ( 'NONE', *, *, #123, .T. ) ;
#160 = CARTESIAN_POINT ( 'NONE',  ( 0.0000000000000000000, 0.0000000000000000000, 0.0000000000000000000 ) ) ;
#161 = CARTESIAN_POINT ( 'NONE',  ( 3.491481338843130989E-15, -0.2250000000000001443, 0.9999999999999993339 ) ) ;
#162 = APPROVAL_DATE_TIME ( #61, #50 ) ;
#163 = CC_DESIGN_PERSON_AND_ORGANIZATION_ASSIGNMENT ( #113, #66, ( #31 ) ) ;
#164 = EDGE_CURVE ( 'NONE', #215, #215, #2, .T. ) ;
#165 = PLANE ( 'NONE',  #229 ) ;
#166 = DIRECTION ( 'NONE',  ( -4.275831445896958607E-31, -1.000000000000000000, -1.224646799147353207E-16 ) ) ;
#167 = FACE_OUTER_BOUND ( 'NONE', #192, .T. ) ;
#168 = ADVANCED_FACE ( 'NONE', ( #203 ), #88, .F. ) ;
#169 = AXIS2_PLACEMENT_3D ( 'NONE', #238, #237, #11 ) ;
#170 = FACE_OUTER_BOUND ( 'NONE', #99, .T. ) ;
#171 = PLANE ( 'NONE',  #81 ) ;
#172 = CARTESIAN_POINT ( 'NONE',  ( 1.326762908760390423E-13, 1.199999999999989297, 38.00000000000000000 ) ) ;
#173 = APPROVAL_PERSON_ORGANIZATION ( #179, #116, #68 ) ;
#174 = PERSON_AND_ORGANIZATION ( #53, #82 ) ;
#175 = ORIENTED_EDGE ( 'NONE', *, *, #59, .F. ) ;
#176 = PERSON_AND_ORGANIZATION ( #53, #82 ) ;
#177 =( LENGTH_UNIT ( ) NAMED_UNIT ( * ) SI_UNIT ( .MILLI., .METRE. ) );
#178 = EDGE_CURVE ( 'NONE', #84, #84, #16, .T. ) ;
#179 = PERSON_AND_ORGANIZATION ( #53, #82 ) ;
#180 = DIRECTION ( 'NONE',  ( -4.275831445896958607E-31, -1.000000000000000000, -1.224646799147353207E-16 ) ) ;
#181 = CARTESIAN_POINT ( 'NONE',  ( 3.491481338843133355E-15, -1.445602896647343354E-16, 1.000000000000000000 ) ) ;
#182 = FACE_OUTER_BOUND ( 'NONE', #43, .T. ) ;
#183 = CC_DESIGN_SECURITY_CLASSIFICATION ( #86, ( #62 ) ) ;
#184 = DIRECTION ( 'NONE',  ( 4.275831445896958607E-31, 1.000000000000000000, 1.224646799147353207E-16 ) ) ;
#185 = MANIFOLD_SOLID_BREP ( 'Corps-Déplacer/Copier1[2]', #243 ) ;
#186 = FACE_BOUND ( 'NONE', #214, .T. ) ;
#187 = CIRCLE ( 'NONE', #219, 0.2250000000000000611 ) ;
#188 = CC_DESIGN_APPROVAL ( #50, ( #31 ) ) ;
#189 = CALENDAR_DATE ( 2021, 1, 11 ) ;
#190 = ORIENTED_EDGE ( 'NONE', *, *, #164, .F. ) ;
#191 = COORDINATED_UNIVERSAL_TIME_OFFSET ( 1, 0, .AHEAD. ) ;
#192 = EDGE_LOOP ( 'NONE', ( #211 ) ) ;
#193 = TOROIDAL_SURFACE ( 'NONE', #8, 2.225000000000000089, 2.000000000000000000 ) ;
#194 =( NAMED_UNIT ( * ) SI_UNIT ( $, .STERADIAN. ) SOLID_ANGLE_UNIT ( ) );
#195 = LOCAL_TIME ( 10, 16, 26.00000000000000000, #119 ) ;
#196 = ORIENTED_EDGE ( 'NONE', *, *, #178, .F. ) ;
#197 = APPLICATION_PROTOCOL_DEFINITION ( 'international standard', 'config_control_design', 1994, #199 ) ;
#198 = DIRECTION ( 'NONE',  ( 3.491481338843133355E-15, -1.219242935835426903E-16, 1.000000000000000000 ) ) ;
#199 = APPLICATION_CONTEXT ( 'configuration controlled 3d designs of mechanical parts and assemblies' ) ;
#200 = CLOSED_SHELL ( 'NONE', ( #155, #58, #148, #76, #93, #168 ) ) ;
#201 = CARTESIAN_POINT ( 'NONE',  ( 1.326762908760390423E-13, -4.653657836759941941E-15, 38.00000000000000000 ) ) ;
#202 = DIRECTION ( 'NONE',  ( -3.491481338843133355E-15, 1.224646799147353207E-16, -1.000000000000000000 ) ) ;
#203 = FACE_OUTER_BOUND ( 'NONE', #228, .T. ) ;
#204 = APPROVAL_ROLE ( '' ) ;
#205 = AXIS2_PLACEMENT_3D ( 'NONE', #34, #202, #54 ) ;
#206 = DIRECTION ( 'NONE',  ( 3.491481338843133355E-15, -1.219242935835426903E-16, 1.000000000000000000 ) ) ;
#207 = EDGE_CURVE ( 'NONE', #42, #42, #154, .T. ) ;
#208 = VERTEX_POINT ( 'NONE', #18 ) ;
#209 =( GEOMETRIC_REPRESENTATION_CONTEXT ( 3 ) GLOBAL_UNCERTAINTY_ASSIGNED_CONTEXT ( ( #232 ) ) GLOBAL_UNIT_ASSIGNED_CONTEXT ( ( #177, #85, #194 ) ) REPRESENTATION_CONTEXT ( 'NONE', 'WORKASPACE' ) );
#210 = EDGE_LOOP ( 'NONE', ( #140 ) ) ;
#211 = ORIENTED_EDGE ( 'NONE', *, *, #164, .T. ) ;
#212 = SECURITY_CLASSIFICATION_LEVEL ( 'unclassified' ) ;
#213 = MECHANICAL_CONTEXT ( 'NONE', #223, 'mechanical' ) ;
#214 = EDGE_LOOP ( 'NONE', ( #22 ) ) ;
#215 = VERTEX_POINT ( 'NONE', #216 ) ;
#216 = CARTESIAN_POINT ( 'NONE',  ( -3.398447905693904685E-30, -0.2249999999999999500, -9.733541657192261506E-16 ) ) ;
#217 = FACE_OUTER_BOUND ( 'NONE', #83, .T. ) ;
#218 = CARTESIAN_POINT ( 'NONE',  ( 5.298805071068388947E-15, -1.850369520637249153E-16, 1.517638090205028378 ) ) ;
#219 = AXIS2_PLACEMENT_3D ( 'NONE', #28, #74, #221 ) ;
#220 = LOCAL_TIME ( 10, 16, 26.00000000000000000, #128 ) ;
#221 = DIRECTION ( 'NONE',  ( 0.0000000000000000000, -1.000000000000000000, 0.0000000000000000000 ) ) ;
#222 = DIRECTION ( 'NONE',  ( 4.275831445896958607E-31, 1.000000000000000000, 1.224646799147353207E-16 ) ) ;
#223 = APPLICATION_CONTEXT ( 'configuration controlled 3d designs of mechanical parts and assemblies' ) ;
#224 = DATE_AND_TIME ( #15, #220 ) ;
#225 = FACE_OUTER_BOUND ( 'NONE', #3, .T. ) ;
#226 = CARTESIAN_POINT ( 'NONE',  ( 3.491481338843130989E-15, -0.2250000000000001443, 0.9999999999999993339 ) ) ;
#227 = AXIS2_PLACEMENT_3D ( 'NONE', #239, #106, #184 ) ;
#228 = EDGE_LOOP ( 'NONE', ( #114 ) ) ;
#229 = AXIS2_PLACEMENT_3D ( 'NONE', #236, #91, #166 ) ;
#230 = EDGE_LOOP ( 'NONE', ( #156 ) ) ;
#231 = PERSON_AND_ORGANIZATION_ROLE ( 'creator' ) ;
#232 = UNCERTAINTY_MEASURE_WITH_UNIT (LENGTH_MEASURE( 1.000000000000000082E-05 ), #177, 'distance_accuracy_value', 'NONE');
#233 = EDGE_LOOP ( 'NONE', ( #26 ) ) ;
#234 = AXIS2_PLACEMENT_3D ( 'NONE', #32, #198, #131 ) ;
#235 = APPROVAL_STATUS ( 'not_yet_approved' ) ;
#236 = CARTESIAN_POINT ( 'NONE',  ( 3.491481338843133355E-15, -1.445602896647343354E-16, 1.000000000000000000 ) ) ;
#237 = DIRECTION ( 'NONE',  ( -3.491481338843133355E-15, 1.224646799147353207E-16, -1.000000000000000000 ) ) ;
#238 = CARTESIAN_POINT ( 'NONE',  ( 1.326762908760390423E-13, -4.653657836759941941E-15, 38.00000000000000000 ) ) ;
#239 = CARTESIAN_POINT ( 'NONE',  ( 0.0000000000000000000, 0.0000000000000000000, 0.0000000000000000000 ) ) ;
#240 = CARTESIAN_POINT ( 'NONE',  ( -1.282754905350004587E-30, 4.499298539707956128E-32, -3.673956068672651857E-16 ) ) ;
#241 = PERSON_AND_ORGANIZATION ( #53, #82 ) ;
#242 = VERTEX_POINT ( 'NONE', #38 ) ;
#243 = CLOSED_SHELL ( 'NONE', ( #110, #107, #46 ) ) ;
ENDSEC;
END-ISO-10303-21;
