ISO-10303-21;
HEADER;
FILE_DESCRIPTION (( 'STEP AP203' ),
    '1' );
FILE_NAME ('47917.step',
    '2021-11-01T09:16:26',
    ( '' ),
    ( '' ),
    'SwSTEP 2.0',
    'SolidWorks 2019',
    '' );
FILE_SCHEMA (( 'CONFIG_CONTROL_DESIGN' ));
ENDSEC;

DATA;
#1 = APPLICATION_PROTOCOL_DEFINITION ( 'international standard', 'config_control_design', 1994, #156 ) ;
#2 = ADVANCED_FACE ( 'NONE', ( #77 ), #231, .T. ) ;
#3 = VERTEX_POINT ( 'NONE', #227 ) ;
#4 = EDGE_LOOP ( 'NONE', ( #17 ) ) ;
#5 = DATE_AND_TIME ( #56, #23 ) ;
#6 = PERSON_AND_ORGANIZATION ( #203, #58 ) ;
#7 = ORIENTED_EDGE ( 'NONE', *, *, #26, .T. ) ;
#8 = AXIS2_PLACEMENT_3D ( 'NONE', #82, #236, #180 ) ;
#9 = FACE_OUTER_BOUND ( 'NONE', #229, .T. ) ;
#10 = COORDINATED_UNIVERSAL_TIME_OFFSET ( 1, 0, .AHEAD. ) ;
#11 = CIRCLE ( 'NONE', #216, 0.2431483474218600060 ) ;
#12 = LOCAL_TIME ( 10, 16, 26.00000000000000000, #205 ) ;
#13 = FACE_OUTER_BOUND ( 'NONE', #4, .T. ) ;
#14 = CYLINDRICAL_SURFACE ( 'NONE', #155, 1.499999999999991340 ) ;
#15 = ADVANCED_FACE ( 'NONE', ( #162 ), #22, .F. ) ;
#16 = ADVANCED_FACE ( 'NONE', ( #160, #158 ), #124, .T. ) ;
#17 = ORIENTED_EDGE ( 'NONE', *, *, #175, .F. ) ;
#18 = VERTEX_POINT ( 'NONE', #19 ) ;
#19 = CARTESIAN_POINT ( 'NONE',  ( 4.600508803299760698E-15, -0.2431483474218601448, 1.317638090205028201 ) ) ;
#20 = EDGE_LOOP ( 'NONE', ( #110 ) ) ;
#21 = PERSON_AND_ORGANIZATION ( #203, #58 ) ;
#22 = PLANE ( 'NONE',  #76 ) ;
#23 = LOCAL_TIME ( 10, 16, 26.00000000000000000, #210 ) ;
#24 = PRODUCT ( '47917', '47917', '', ( #150 ) ) ;
#25 = FACE_OUTER_BOUND ( 'NONE', #55, .T. ) ;
#26 = EDGE_CURVE ( 'NONE', #31, #31, #29, .T. ) ;
#27 = FACE_OUTER_BOUND ( 'NONE', #20, .T. ) ;
#28 = DIRECTION ( 'NONE',  ( 0.0000000000000000000, -1.000000000000000000, 0.0000000000000000000 ) ) ;
#29 = CIRCLE ( 'NONE', #161, 1.499999999999991340 ) ;
#30 = CARTESIAN_POINT ( 'NONE',  ( 2.793185071074504318E-15, -9.753943486683406100E-17, 0.7999999999999992673 ) ) ;
#31 = VERTEX_POINT ( 'NONE', #107 ) ;
#32 = APPROVAL ( #186, 'UNSPECIFIED' ) ;
#33 = APPROVAL_PERSON_ORGANIZATION ( #147, #228, #230 ) ;
#34 = ORIENTED_EDGE ( 'NONE', *, *, #94, .F. ) ;
#35 = CALENDAR_DATE ( 2021, 1, 11 ) ;
#36 =( NAMED_UNIT ( * ) PLANE_ANGLE_UNIT ( ) SI_UNIT ( $, .RADIAN. ) );
#37 = EDGE_LOOP ( 'NONE', ( #93 ) ) ;
#38 = DATE_TIME_ROLE ( 'creation_date' ) ;
#39 = PERSON_AND_ORGANIZATION_ROLE ( 'creator' ) ;
#40 = PERSON_AND_ORGANIZATION ( #203, #58 ) ;
#41 = CARTESIAN_POINT ( 'NONE',  ( 1.326762908760390423E-13, 8.998558695971030697E-33, 38.00000000000000000 ) ) ;
#42 = EDGE_CURVE ( 'NONE', #144, #144, #108, .T. ) ;
#43 = CARTESIAN_POINT ( 'NONE',  ( 1.326762908760390423E-13, -4.653657836759941941E-15, 38.00000000000000000 ) ) ;
#44 = DIRECTION ( 'NONE',  ( 3.491481338843133355E-15, -1.219242935835426903E-16, 1.000000000000000000 ) ) ;
#45 = DIRECTION ( 'NONE',  ( 3.491481338843133355E-15, -1.224646799147353207E-16, 1.000000000000000000 ) ) ;
#46 = DATE_AND_TIME ( #101, #211 ) ;
#47 = CARTESIAN_POINT ( 'NONE',  ( 0.0000000000000000000, 0.0000000000000000000, 0.0000000000000000000 ) ) ;
#48 = CARTESIAN_POINT ( 'NONE',  ( 1.326762908760390423E-13, 1.199999999999989297, 38.00000000000000000 ) ) ;
#49 = EDGE_CURVE ( 'NONE', #200, #200, #119, .T. ) ;
#50 = SECURITY_CLASSIFICATION ( '', '', #98 ) ;
#51 = DESIGN_CONTEXT ( 'detailed design', #92, 'design' ) ;
#52 = PERSON_AND_ORGANIZATION ( #203, #58 ) ;
#53 = LOCAL_TIME ( 10, 16, 26.00000000000000000, #80 ) ;
#54 = ORIENTED_EDGE ( 'NONE', *, *, #175, .T. ) ;
#55 = EDGE_LOOP ( 'NONE', ( #129 ) ) ;
#56 = CALENDAR_DATE ( 2021, 1, 11 ) ;
#57 = CIRCLE ( 'NONE', #8, 0.1750000000000000167 ) ;
#58 = ORGANIZATION ( 'UNSPECIFIED', 'UNSPECIFIED', '' ) ;
#59 = APPROVAL_ROLE ( '' ) ;
#60 = DIRECTION ( 'NONE',  ( -4.256963957985709765E-31, -1.000000000000000000, -1.219242935835426903E-16 ) ) ;
#61 = ADVANCED_FACE ( 'NONE', ( #125 ), #87, .F. ) ;
#62 = FACE_OUTER_BOUND ( 'NONE', #37, .T. ) ;
#63 = CARTESIAN_POINT ( 'NONE',  ( 2.793185071074506290E-15, -1.156482317317874437E-16, 0.7999999999999998224 ) ) ;
#64 = PRODUCT_DEFINITION_FORMATION_WITH_SPECIFIED_SOURCE ( 'ANY', '', #24, .NOT_KNOWN. ) ;
#65 = DIRECTION ( 'NONE',  ( 3.491481338843133355E-15, -1.224646799147353207E-16, 1.000000000000000000 ) ) ;
#66 = APPROVAL_DATE_TIME ( #46, #213 ) ;
#67 = FACE_OUTER_BOUND ( 'NONE', #173, .T. ) ;
#68 = CARTESIAN_POINT ( 'NONE',  ( 1.316288464743861212E-13, 1.499999999999989120, 37.69999999999999574 ) ) ;
#69 = AXIS2_PLACEMENT_3D ( 'NONE', #157, #102, #83 ) ;
#70 = PRODUCT_DEFINITION ( 'UNKNOWN', '', #64, #51 ) ;
#71 = LOCAL_TIME ( 10, 16, 26.00000000000000000, #135 ) ;
#72 = UNCERTAINTY_MEASURE_WITH_UNIT (LENGTH_MEASURE( 1.000000000000000082E-05 ), #73, 'distance_accuracy_value', 'NONE');
#73 =( LENGTH_UNIT ( ) NAMED_UNIT ( * ) SI_UNIT ( .MILLI., .METRE. ) );
#74 = ORIENTED_EDGE ( 'NONE', *, *, #140, .F. ) ;
#75 = CARTESIAN_POINT ( 'NONE',  ( 0.0000000000000000000, 0.0000000000000000000, 0.0000000000000000000 ) ) ;
#76 = AXIS2_PLACEMENT_3D ( 'NONE', #63, #65, #104 ) ;
#77 = FACE_OUTER_BOUND ( 'NONE', #97, .T. ) ;
#78 = PERSON_AND_ORGANIZATION ( #203, #58 ) ;
#79 = PRODUCT_DEFINITION_SHAPE ( 'NONE', 'NONE',  #70 ) ;
#80 = COORDINATED_UNIVERSAL_TIME_OFFSET ( 1, 0, .AHEAD. ) ;
#81 = DIRECTION ( 'NONE',  ( -4.275831445896958607E-31, -1.000000000000000000, -1.224646799147353207E-16 ) ) ;
#82 = CARTESIAN_POINT ( 'NONE',  ( -3.281381396849297816E-30, 1.145874973863075917E-31, -9.398249849837520735E-16 ) ) ;
#83 = DIRECTION ( 'NONE',  ( 0.0000000000000000000, -1.000000000000000000, 0.0000000000000000000 ) ) ;
#84 = AXIS2_PLACEMENT_3D ( 'NONE', #47, #44, #60 ) ;
#85 = DIRECTION ( 'NONE',  ( 0.0000000000000000000, 1.000000000000000000, 0.0000000000000000000 ) ) ;
#86 = ADVANCED_FACE ( 'NONE', ( #62, #13 ), #127, .F. ) ;
#87 = PLANE ( 'NONE',  #202 ) ;
#88 = DIRECTION ( 'NONE',  ( -3.491481338843133355E-15, 1.224646799147353207E-16, -1.000000000000000000 ) ) ;
#89 = AXIS2_PLACEMENT_3D ( 'NONE', #143, #215, #81 ) ;
#90 = ADVANCED_FACE ( 'NONE', ( #217 ), #136, .F. ) ;
#91 = CC_DESIGN_APPROVAL ( #32, ( #64 ) ) ;
#92 = APPLICATION_CONTEXT ( 'configuration controlled 3d designs of mechanical parts and assemblies' ) ;
#93 = ORIENTED_EDGE ( 'NONE', *, *, #159, .T. ) ;
#94 = EDGE_CURVE ( 'NONE', #165, #165, #232, .T. ) ;
#95 = CALENDAR_DATE ( 2021, 1, 11 ) ;
#96 = VERTEX_POINT ( 'NONE', #212 ) ;
#97 = EDGE_LOOP ( 'NONE', ( #149 ) ) ;
#98 = SECURITY_CLASSIFICATION_LEVEL ( 'unclassified' ) ;
#99 = AXIS2_PLACEMENT_3D ( 'NONE', #240, #142, #28 ) ;
#100 = DIRECTION ( 'NONE',  ( -4.336470827456546043E-31, -1.000000000000000000, -1.219242935835426903E-16 ) ) ;
#101 = CALENDAR_DATE ( 2021, 1, 11 ) ;
#102 = DIRECTION ( 'NONE',  ( 3.491481338843133355E-15, -1.219242935835426903E-16, 1.000000000000000000 ) ) ;
#103 = CARTESIAN_POINT ( 'NONE',  ( 2.097777066722135260E-14, -7.325543576887609507E-16, 6.008272315203644354 ) ) ;
#104 = DIRECTION ( 'NONE',  ( -4.275831445896958607E-31, -1.000000000000000000, -1.224646799147353207E-16 ) ) ;
#105 = DIRECTION ( 'NONE',  ( 0.0000000000000000000, -1.000000000000000000, 0.0000000000000000000 ) ) ;
#106 = ADVANCED_FACE ( 'NONE', ( #9, #120 ), #181, .T. ) ;
#107 = CARTESIAN_POINT ( 'NONE',  ( 2.097777066722135260E-14, -1.499999999999992006, 6.008272315203644354 ) ) ;
#108 = CIRCLE ( 'NONE', #69, 0.1749999999999999056 ) ;
#109 =( GEOMETRIC_REPRESENTATION_CONTEXT ( 3 ) GLOBAL_UNCERTAINTY_ASSIGNED_CONTEXT ( ( #72 ) ) GLOBAL_UNIT_ASSIGNED_CONTEXT ( ( #73, #36, #188 ) ) REPRESENTATION_CONTEXT ( 'NONE', 'WORKASPACE' ) );
#110 = ORIENTED_EDGE ( 'NONE', *, *, #26, .F. ) ;
#111 = DATE_AND_TIME ( #35, #12 ) ;
#112 = CC_DESIGN_PERSON_AND_ORGANIZATION_ASSIGNMENT ( #6, #152, ( #24 ) ) ;
#113 = EDGE_LOOP ( 'NONE', ( #189 ) ) ;
#114 = PERSON_AND_ORGANIZATION ( #203, #58 ) ;
#115 = AXIS2_PLACEMENT_3D ( 'NONE', #30, #121, #105 ) ;
#116 = APPROVAL_DATE_TIME ( #153, #32 ) ;
#117 = PERSON_AND_ORGANIZATION_ROLE ( 'creator' ) ;
#118 = CARTESIAN_POINT ( 'NONE',  ( 4.600508803299760698E-15, -1.606520933470163724E-16, 1.317638090205028201 ) ) ;
#119 = CIRCLE ( 'NONE', #238, 1.199999999999993738 ) ;
#120 = FACE_BOUND ( 'NONE', #132, .T. ) ;
#121 = DIRECTION ( 'NONE',  ( 3.491481338843133355E-15, -1.219242935835426903E-16, 1.000000000000000000 ) ) ;
#122 = CC_DESIGN_DATE_AND_TIME_ASSIGNMENT ( #172, #38, ( #70 ) ) ;
#123 = DIRECTION ( 'NONE',  ( 4.275831445896958607E-31, 1.000000000000000000, 1.224646799147353207E-16 ) ) ;
#124 = CONICAL_SURFACE ( 'NONE', #99, 2.499999999999992895, 0.2617993877991429130 ) ;
#125 = FACE_OUTER_BOUND ( 'NONE', #226, .T. ) ;
#126 = CARTESIAN_POINT ( 'NONE',  ( 0.0000000000000000000, 0.0000000000000000000, 0.0000000000000000000 ) ) ;
#127 = TOROIDAL_SURFACE ( 'NONE', #192, 2.174999999999999822, 2.000000000000000000 ) ;
#128 = PERSON_AND_ORGANIZATION_ROLE ( 'classification_officer' ) ;
#129 = ORIENTED_EDGE ( 'NONE', *, *, #42, .F. ) ;
#130 = APPROVAL_STATUS ( 'not_yet_approved' ) ;
#131 = APPROVAL_DATE_TIME ( #5, #228 ) ;
#132 = EDGE_LOOP ( 'NONE', ( #224 ) ) ;
#133 = CLOSED_SHELL ( 'NONE', ( #206, #106, #61, #16, #86, #15 ) ) ;
#134 = APPROVAL_PERSON_ORGANIZATION ( #114, #32, #59 ) ;
#135 = COORDINATED_UNIVERSAL_TIME_OFFSET ( 1, 0, .AHEAD. ) ;
#136 = PLANE ( 'NONE',  #89 ) ;
#137 = DIRECTION ( 'NONE',  ( 0.0000000000000000000, 1.000000000000000000, 0.0000000000000000000 ) ) ;
#138 = APPROVAL_STATUS ( 'not_yet_approved' ) ;
#139 = CLOSED_SHELL ( 'NONE', ( #2, #148, #90 ) ) ;
#140 = EDGE_CURVE ( 'NONE', #3, #3, #57, .T. ) ;
#141 = DIRECTION ( 'NONE',  ( 3.491481338843133355E-15, -1.219242935835426903E-16, 1.000000000000000000 ) ) ;
#142 = DIRECTION ( 'NONE',  ( 3.491481338843133355E-15, -1.219242935835426903E-16, 1.000000000000000000 ) ) ;
#143 = CARTESIAN_POINT ( 'NONE',  ( -1.282754905350004587E-30, 4.499298539707956128E-32, -3.673956068672651857E-16 ) ) ;
#144 = VERTEX_POINT ( 'NONE', #222 ) ;
#145 = PRODUCT_RELATED_PRODUCT_CATEGORY ( 'detail', '', ( #24 ) ) ;
#146 = EDGE_LOOP ( 'NONE', ( #74 ) ) ;
#147 = PERSON_AND_ORGANIZATION ( #203, #58 ) ;
#148 = ADVANCED_FACE ( 'NONE', ( #67, #25 ), #221, .T. ) ;
#149 = ORIENTED_EDGE ( 'NONE', *, *, #42, .T. ) ;
#150 = MECHANICAL_CONTEXT ( 'NONE', #156, 'mechanical' ) ;
#151 = EDGE_LOOP ( 'NONE', ( #54 ) ) ;
#152 = PERSON_AND_ORGANIZATION_ROLE ( 'design_owner' ) ;
#153 = DATE_AND_TIME ( #95, #71 ) ;
#154 = DIRECTION ( 'NONE',  ( 1.000000000000000000, 0.0000000000000000000, 0.0000000000000000000 ) ) ;
#155 = AXIS2_PLACEMENT_3D ( 'NONE', #126, #88, #242 ) ;
#156 = APPLICATION_CONTEXT ( 'configuration controlled 3d designs of mechanical parts and assemblies' ) ;
#157 = CARTESIAN_POINT ( 'NONE',  ( 2.793185071074504318E-15, -9.753943486683406100E-17, 0.7999999999999992673 ) ) ;
#158 = FACE_OUTER_BOUND ( 'NONE', #171, .T. ) ;
#159 = EDGE_CURVE ( 'NONE', #96, #96, #178, .T. ) ;
#160 = FACE_BOUND ( 'NONE', #151, .T. ) ;
#161 = AXIS2_PLACEMENT_3D ( 'NONE', #103, #195, #235 ) ;
#162 = FACE_OUTER_BOUND ( 'NONE', #183, .T. ) ;
#163 = APPROVAL_ROLE ( '' ) ;
#164 = DIRECTION ( 'NONE',  ( -3.491481338843133355E-15, 1.224646799147353207E-16, -1.000000000000000000 ) ) ;
#165 = VERTEX_POINT ( 'NONE', #68 ) ;
#166 = CC_DESIGN_PERSON_AND_ORGANIZATION_ASSIGNMENT ( #78, #39, ( #70 ) ) ;
#167 = CC_DESIGN_SECURITY_CLASSIFICATION ( #50, ( #64 ) ) ;
#168 = CC_DESIGN_PERSON_AND_ORGANIZATION_ASSIGNMENT ( #40, #117, ( #64 ) ) ;
#169 = ORIENTED_EDGE ( 'NONE', *, *, #140, .T. ) ;
#170 = DIRECTION ( 'NONE',  ( 0.0000000000000000000, 0.0000000000000000000, 1.000000000000000000 ) ) ;
#171 = EDGE_LOOP ( 'NONE', ( #7 ) ) ;
#172 = DATE_AND_TIME ( #233, #53 ) ;
#173 = EDGE_LOOP ( 'NONE', ( #169 ) ) ;
#174 = CARTESIAN_POINT ( 'NONE',  ( 1.316288464743861212E-13, -4.616918432785521081E-15, 37.69999999999999574 ) ) ;
#175 = EDGE_CURVE ( 'NONE', #18, #18, #11, .T. ) ;
#176 = DIRECTION ( 'NONE',  ( -4.275831445896958607E-31, -1.000000000000000000, -1.224646799147353207E-16 ) ) ;
#177 = DIRECTION ( 'NONE',  ( 3.491481338843133355E-15, -1.219242935835426903E-16, 1.000000000000000000 ) ) ;
#178 = CIRCLE ( 'NONE', #115, 0.1749999999999999056 ) ;
#179 = DIRECTION ( 'NONE',  ( 0.0000000000000000000, 1.000000000000000000, 0.0000000000000000000 ) ) ;
#180 = DIRECTION ( 'NONE',  ( -4.256963957985700131E-31, -1.000000000000000000, -1.219242935835430354E-16 ) ) ;
#181 = CONICAL_SURFACE ( 'NONE', #198, 1.199999999999993738, 0.7853981633974453924 ) ;
#182 = AXIS2_PLACEMENT_3D ( 'NONE', #75, #170, #154 ) ;
#183 = EDGE_LOOP ( 'NONE', ( #209 ) ) ;
#184 = DATE_TIME_ROLE ( 'classification_date' ) ;
#185 = AXIS2_PLACEMENT_3D ( 'NONE', #174, #164, #137 ) ;
#186 = APPROVAL_STATUS ( 'not_yet_approved' ) ;
#187 = APPROVAL_PERSON_ORGANIZATION ( #191, #213, #163 ) ;
#188 =( NAMED_UNIT ( * ) SI_UNIT ( $, .STERADIAN. ) SOLID_ANGLE_UNIT ( ) );
#189 = ORIENTED_EDGE ( 'NONE', *, *, #94, .T. ) ;
#190 = DIRECTION ( 'NONE',  ( 0.0000000000000000000, -1.000000000000000000, 0.0000000000000000000 ) ) ;
#191 = PERSON_AND_ORGANIZATION ( #203, #58 ) ;
#192 = AXIS2_PLACEMENT_3D ( 'NONE', #199, #141, #100 ) ;
#193 = CARTESIAN_POINT ( 'NONE',  ( 1.326762908760390423E-13, -4.653657836759941941E-15, 38.00000000000000000 ) ) ;
#194 = FACE_OUTER_BOUND ( 'NONE', #113, .T. ) ;
#195 = DIRECTION ( 'NONE',  ( -3.491481338843133355E-15, 1.219242935835426903E-16, -1.000000000000000000 ) ) ;
#196 = CC_DESIGN_PERSON_AND_ORGANIZATION_ASSIGNMENT ( #52, #128, ( #50 ) ) ;
#197 = MANIFOLD_SOLID_BREP ( 'Corps-Déplacer/Copier1[2]', #139 ) ;
#198 = AXIS2_PLACEMENT_3D ( 'NONE', #193, #241, #85 ) ;
#199 = CARTESIAN_POINT ( 'NONE',  ( 2.793185071074504318E-15, 0.0000000000000000000, 0.7999999999999992673 ) ) ;
#200 = VERTEX_POINT ( 'NONE', #48 ) ;
#201 = MANIFOLD_SOLID_BREP ( 'Corps-Déplacer/Copier1[1]', #133 ) ;
#202 = AXIS2_PLACEMENT_3D ( 'NONE', #41, #219, #123 ) ;
#203 = PERSON ( 'UNSPECIFIED', 'UNSPECIFIED', 'UNSPECIFIED', ('UNSPECIFIED'), ('UNSPECIFIED'), ('UNSPECIFIED') ) ;
#204 = AXIS2_PLACEMENT_3D ( 'NONE', #237, #45, #176 ) ;
#205 = COORDINATED_UNIVERSAL_TIME_OFFSET ( 1, 0, .AHEAD. ) ;
#206 = ADVANCED_FACE ( 'NONE', ( #194, #27 ), #14, .T. ) ;
#207 = ORIENTED_EDGE ( 'NONE', *, *, #49, .F. ) ;
#208 = APPLICATION_PROTOCOL_DEFINITION ( 'international standard', 'config_control_design', 1994, #92 ) ;
#209 = ORIENTED_EDGE ( 'NONE', *, *, #159, .F. ) ;
#210 = COORDINATED_UNIVERSAL_TIME_OFFSET ( 1, 0, .AHEAD. ) ;
#211 = LOCAL_TIME ( 10, 16, 26.00000000000000000, #10 ) ;
#212 = CARTESIAN_POINT ( 'NONE',  ( 2.793185071074504318E-15, -0.1750000000000000167, 0.7999999999999992673 ) ) ;
#213 = APPROVAL ( #138, 'UNSPECIFIED' ) ;
#214 = DIRECTION ( 'NONE',  ( -3.491481338843133355E-15, 1.224646799147353207E-16, -1.000000000000000000 ) ) ;
#215 = DIRECTION ( 'NONE',  ( 3.491481338843133355E-15, -1.224646799147353207E-16, 1.000000000000000000 ) ) ;
#216 = AXIS2_PLACEMENT_3D ( 'NONE', #118, #177, #190 ) ;
#217 = FACE_OUTER_BOUND ( 'NONE', #146, .T. ) ;
#218 = SHAPE_DEFINITION_REPRESENTATION ( #79, #223 ) ;
#219 = DIRECTION ( 'NONE',  ( -3.491481338843133355E-15, 1.224646799147353207E-16, -1.000000000000000000 ) ) ;
#220 = CC_DESIGN_DATE_AND_TIME_ASSIGNMENT ( #111, #184, ( #50 ) ) ;
#221 = CYLINDRICAL_SURFACE ( 'NONE', #84, 0.1749999999999999611 ) ;
#222 = CARTESIAN_POINT ( 'NONE',  ( 2.793185071074504318E-15, -0.1750000000000000167, 0.7999999999999992673 ) ) ;
#223 = ADVANCED_BREP_SHAPE_REPRESENTATION ( '47917', ( #201, #197, #182 ), #109 ) ;
#224 = ORIENTED_EDGE ( 'NONE', *, *, #49, .T. ) ;
#225 = PERSON_AND_ORGANIZATION_ROLE ( 'design_supplier' ) ;
#226 = EDGE_LOOP ( 'NONE', ( #207 ) ) ;
#227 = CARTESIAN_POINT ( 'NONE',  ( -3.355878266114047833E-30, -0.1750000000000000167, -9.611617363608719407E-16 ) ) ;
#228 = APPROVAL ( #130, 'UNSPECIFIED' ) ;
#229 = EDGE_LOOP ( 'NONE', ( #34 ) ) ;
#230 = APPROVAL_ROLE ( '' ) ;
#231 = PLANE ( 'NONE',  #204 ) ;
#232 = CIRCLE ( 'NONE', #185, 1.499999999999993783 ) ;
#233 = CALENDAR_DATE ( 2021, 1, 11 ) ;
#234 = CC_DESIGN_APPROVAL ( #213, ( #50 ) ) ;
#235 = DIRECTION ( 'NONE',  ( 0.0000000000000000000, -1.000000000000000000, 0.0000000000000000000 ) ) ;
#236 = DIRECTION ( 'NONE',  ( 3.491481338843133355E-15, -1.219242935835426903E-16, 1.000000000000000000 ) ) ;
#237 = CARTESIAN_POINT ( 'NONE',  ( 2.793185071074506290E-15, -1.156482317317874437E-16, 0.7999999999999998224 ) ) ;
#238 = AXIS2_PLACEMENT_3D ( 'NONE', #43, #214, #179 ) ;
#239 = CC_DESIGN_PERSON_AND_ORGANIZATION_ASSIGNMENT ( #21, #225, ( #64 ) ) ;
#240 = CARTESIAN_POINT ( 'NONE',  ( 3.400815641746288986E-14, -1.187582016019498880E-15, 9.740323122772624131 ) ) ;
#241 = DIRECTION ( 'NONE',  ( -3.491481338843133355E-15, 1.224646799147353207E-16, -1.000000000000000000 ) ) ;
#242 = DIRECTION ( 'NONE',  ( 4.275831445896958607E-31, 1.000000000000000000, 1.224646799147353207E-16 ) ) ;
#243 = CC_DESIGN_APPROVAL ( #228, ( #70 ) ) ;
ENDSEC;
END-ISO-10303-21;
