ISO-10303-21;
HEADER;
FILE_DESCRIPTION (( 'STEP AP203' ),
    '1' );
FILE_NAME ('47916.step',
    '2021-11-01T09:16:25',
    ( '' ),
    ( '' ),
    'SwSTEP 2.0',
    'SolidWorks 2019',
    '' );
FILE_SCHEMA (( 'CONFIG_CONTROL_DESIGN' ));
ENDSEC;

DATA;
#1 = CARTESIAN_POINT ( 'NONE',  ( 2.093099368696479916E-14, -7.309208818885891070E-16, 5.994874855582091655 ) ) ;
#2 = CALENDAR_DATE ( 2021, 1, 11 ) ;
#3 = DIRECTION ( 'NONE',  ( -4.275831445896958607E-31, -1.000000000000000000, -1.224646799147353207E-16 ) ) ;
#4 = APPROVAL ( #116, 'UNSPECIFIED' ) ;
#5 = AXIS2_PLACEMENT_3D ( 'NONE', #215, #135, #187 ) ;
#6 = CARTESIAN_POINT ( 'NONE',  ( 0.0000000000000000000, 0.0000000000000000000, 0.0000000000000000000 ) ) ;
#7 = TOROIDAL_SURFACE ( 'NONE', #61, 2.125000000000000000, 2.000000000000000000 ) ;
#8 = DIRECTION ( 'NONE',  ( 0.0000000000000000000, -1.000000000000000000, 0.0000000000000000000 ) ) ;
#9 = CYLINDRICAL_SURFACE ( 'NONE', #94, 0.1250000000000001665 ) ;
#10 = EDGE_LOOP ( 'NONE', ( #78 ) ) ;
#11 = CIRCLE ( 'NONE', #169, 1.499999999999991340 ) ;
#12 = DESIGN_CONTEXT ( 'detailed design', #34, 'design' ) ;
#13 = ORIENTED_EDGE ( 'NONE', *, *, #161, .F. ) ;
#14 = PRODUCT_RELATED_PRODUCT_CATEGORY ( 'detail', '', ( #74 ) ) ;
#15 = CONICAL_SURFACE ( 'NONE', #143, 1.199999999999993738, 0.7853981633974453924 ) ;
#16 = DIRECTION ( 'NONE',  ( 0.0000000000000000000, 0.0000000000000000000, 1.000000000000000000 ) ) ;
#17 = ORIENTED_EDGE ( 'NONE', *, *, #113, .F. ) ;
#18 = PERSON_AND_ORGANIZATION ( #227, #92 ) ;
#19 = VERTEX_POINT ( 'NONE', #236 ) ;
#20 = APPROVAL_DATE_TIME ( #243, #33 ) ;
#21 = ADVANCED_FACE ( 'NONE', ( #32 ), #231, .F. ) ;
#22 = CALENDAR_DATE ( 2021, 1, 11 ) ;
#23 = CARTESIAN_POINT ( 'NONE',  ( 1.326762908760390423E-13, -4.653657836759941941E-15, 38.00000000000000000 ) ) ;
#24 = CC_DESIGN_PERSON_AND_ORGANIZATION_ASSIGNMENT ( #58, #112, ( #74 ) ) ;
#25 = PLANE ( 'NONE',  #179 ) ;
#26 = CARTESIAN_POINT ( 'NONE',  ( -1.282754905350004587E-30, 4.499298539707956128E-32, -3.673956068672651857E-16 ) ) ;
#27 = CARTESIAN_POINT ( 'NONE',  ( 2.094888803305877252E-15, -7.315457615012551802E-17, 0.5999999999999992006 ) ) ;
#28 = DIRECTION ( 'NONE',  ( 3.491481338843133355E-15, -1.219242935835426903E-16, 1.000000000000000000 ) ) ;
#29 = AXIS2_PLACEMENT_3D ( 'NONE', #23, #108, #47 ) ;
#30 = APPLICATION_CONTEXT ( 'configuration controlled 3d designs of mechanical parts and assemblies' ) ;
#31 = FACE_OUTER_BOUND ( 'NONE', #216, .T. ) ;
#32 = FACE_OUTER_BOUND ( 'NONE', #193, .T. ) ;
#33 = APPROVAL ( #238, 'UNSPECIFIED' ) ;
#34 = APPLICATION_CONTEXT ( 'configuration controlled 3d designs of mechanical parts and assemblies' ) ;
#35 = PERSON_AND_ORGANIZATION_ROLE ( 'design_supplier' ) ;
#36 = APPROVAL ( #38, 'UNSPECIFIED' ) ;
#37 = COORDINATED_UNIVERSAL_TIME_OFFSET ( 1, 0, .AHEAD. ) ;
#38 = APPROVAL_STATUS ( 'not_yet_approved' ) ;
#39 = CC_DESIGN_APPROVAL ( #4, ( #159 ) ) ;
#40 = CLOSED_SHELL ( 'NONE', ( #153, #82, #144 ) ) ;
#41 = DIRECTION ( 'NONE',  ( -4.275831445896958607E-31, -1.000000000000000000, -1.224646799147353207E-16 ) ) ;
#42 = DATE_AND_TIME ( #85, #220 ) ;
#43 = DIRECTION ( 'NONE',  ( 3.491481338843133355E-15, -1.219242935835426903E-16, 1.000000000000000000 ) ) ;
#44 = DIRECTION ( 'NONE',  ( -3.491481338843133355E-15, 1.219242935835426903E-16, -1.000000000000000000 ) ) ;
#45 = VERTEX_POINT ( 'NONE', #72 ) ;
#46 = LOCAL_TIME ( 10, 16, 25.00000000000000000, #101 ) ;
#47 = DIRECTION ( 'NONE',  ( 0.0000000000000000000, 1.000000000000000000, 0.0000000000000000000 ) ) ;
#48 = FACE_BOUND ( 'NONE', #151, .T. ) ;
#49 = ORIENTED_EDGE ( 'NONE', *, *, #219, .T. ) ;
#50 = MANIFOLD_SOLID_BREP ( 'Corps-Déplacer/Copier1[2]', #40 ) ;
#51 = CC_DESIGN_DATE_AND_TIME_ASSIGNMENT ( #201, #160, ( #99 ) ) ;
#52 = CC_DESIGN_APPROVAL ( #33, ( #99 ) ) ;
#53 = EDGE_LOOP ( 'NONE', ( #174 ) ) ;
#54 = MECHANICAL_CONTEXT ( 'NONE', #30, 'mechanical' ) ;
#55 = EDGE_LOOP ( 'NONE', ( #152 ) ) ;
#56 = CARTESIAN_POINT ( 'NONE',  ( 2.094888803305877252E-15, -0.1250000000000002776, 0.5999999999999992006 ) ) ;
#57 = EDGE_LOOP ( 'NONE', ( #93 ) ) ;
#58 = PERSON_AND_ORGANIZATION ( #227, #92 ) ;
#59 = CARTESIAN_POINT ( 'NONE',  ( 1.316288464743861212E-13, -4.616918432785521081E-15, 37.69999999999999574 ) ) ;
#60 = AXIS2_PLACEMENT_3D ( 'NONE', #59, #224, #124 ) ;
#61 = AXIS2_PLACEMENT_3D ( 'NONE', #171, #71, #223 ) ;
#62 = CC_DESIGN_DATE_AND_TIME_ASSIGNMENT ( #183, #199, ( #177 ) ) ;
#63 = PERSON_AND_ORGANIZATION_ROLE ( 'classification_officer' ) ;
#64 = AXIS2_PLACEMENT_3D ( 'NONE', #26, #172, #89 ) ;
#65 = AXIS2_PLACEMENT_3D ( 'NONE', #188, #67, #8 ) ;
#66 = COORDINATED_UNIVERSAL_TIME_OFFSET ( 1, 0, .AHEAD. ) ;
#67 = DIRECTION ( 'NONE',  ( 3.491481338843133355E-15, -1.219242935835426903E-16, 1.000000000000000000 ) ) ;
#68 = COORDINATED_UNIVERSAL_TIME_OFFSET ( 1, 0, .AHEAD. ) ;
#69 = PLANE ( 'NONE',  #184 ) ;
#70 = DIRECTION ( 'NONE',  ( -3.491481338843133355E-15, 1.224646799147353207E-16, -1.000000000000000000 ) ) ;
#71 = DIRECTION ( 'NONE',  ( 3.491481338843133355E-15, -1.219242935835426903E-16, 1.000000000000000000 ) ) ;
#72 = CARTESIAN_POINT ( 'NONE',  ( 1.316288464743861212E-13, 1.499999999999989120, 37.69999999999999574 ) ) ;
#73 = ORIENTED_EDGE ( 'NONE', *, *, #113, .T. ) ;
#74 = PRODUCT ( '47916', '47916', '', ( #54 ) ) ;
#75 = EDGE_LOOP ( 'NONE', ( #49 ) ) ;
#76 = EDGE_CURVE ( 'NONE', #45, #45, #147, .T. ) ;
#77 = AXIS2_PLACEMENT_3D ( 'NONE', #27, #168, #148 ) ;
#78 = ORIENTED_EDGE ( 'NONE', *, *, #219, .F. ) ;
#79 = CARTESIAN_POINT ( 'NONE',  ( -3.313308626534190280E-30, -0.1250000000000001110, -9.489693070025175336E-16 ) ) ;
#80 = CARTESIAN_POINT ( 'NONE',  ( 3.902212535531134027E-15, -0.1931483474218604057, 1.117638090205028245 ) ) ;
#81 = VERTEX_POINT ( 'NONE', #158 ) ;
#82 = ADVANCED_FACE ( 'NONE', ( #31, #90 ), #9, .T. ) ;
#83 = PERSON_AND_ORGANIZATION ( #227, #92 ) ;
#84 = CIRCLE ( 'NONE', #77, 0.1250000000000001943 ) ;
#85 = CALENDAR_DATE ( 2021, 1, 11 ) ;
#86 = APPROVAL_DATE_TIME ( #42, #36 ) ;
#87 = CARTESIAN_POINT ( 'NONE',  ( -3.260096577059369039E-30, 1.138442207180152581E-31, -9.337287703045747713E-16 ) ) ;
#88 = DIRECTION ( 'NONE',  ( 0.0000000000000000000, 1.000000000000000000, 0.0000000000000000000 ) ) ;
#89 = DIRECTION ( 'NONE',  ( -4.275831445896958607E-31, -1.000000000000000000, -1.224646799147353207E-16 ) ) ;
#90 = FACE_OUTER_BOUND ( 'NONE', #229, .T. ) ;
#91 = FACE_OUTER_BOUND ( 'NONE', #75, .T. ) ;
#92 = ORGANIZATION ( 'UNSPECIFIED', 'UNSPECIFIED', '' ) ;
#93 = ORIENTED_EDGE ( 'NONE', *, *, #76, .F. ) ;
#94 = AXIS2_PLACEMENT_3D ( 'NONE', #189, #28, #118 ) ;
#95 = EDGE_LOOP ( 'NONE', ( #111 ) ) ;
#96 = ADVANCED_FACE ( 'NONE', ( #164 ), #69, .F. ) ;
#97 = APPLICATION_PROTOCOL_DEFINITION ( 'international standard', 'config_control_design', 1994, #34 ) ;
#98 = APPROVAL_PERSON_ORGANIZATION ( #18, #33, #102 ) ;
#99 = PRODUCT_DEFINITION ( 'UNKNOWN', '', #159, #12 ) ;
#100 = ADVANCED_BREP_SHAPE_REPRESENTATION ( '47916', ( #127, #50, #242 ), #195 ) ;
#101 = COORDINATED_UNIVERSAL_TIME_OFFSET ( 1, 0, .AHEAD. ) ;
#102 = APPROVAL_ROLE ( '' ) ;
#103 = DIRECTION ( 'NONE',  ( 3.491481338843133355E-15, -1.224646799147353207E-16, 1.000000000000000000 ) ) ;
#104 = CC_DESIGN_PERSON_AND_ORGANIZATION_ASSIGNMENT ( #141, #63, ( #177 ) ) ;
#105 = CC_DESIGN_SECURITY_CLASSIFICATION ( #177, ( #159 ) ) ;
#106 = CLOSED_SHELL ( 'NONE', ( #119, #209, #21, #163, #173, #96 ) ) ;
#107 = DIRECTION ( 'NONE',  ( 3.491481338843133355E-15, -1.224646799147353207E-16, 1.000000000000000000 ) ) ;
#108 = DIRECTION ( 'NONE',  ( -3.491481338843133355E-15, 1.224646799147353207E-16, -1.000000000000000000 ) ) ;
#109 = VERTEX_POINT ( 'NONE', #56 ) ;
#110 = EDGE_LOOP ( 'NONE', ( #123 ) ) ;
#111 = ORIENTED_EDGE ( 'NONE', *, *, #126, .T. ) ;
#112 = PERSON_AND_ORGANIZATION_ROLE ( 'design_owner' ) ;
#113 = EDGE_CURVE ( 'NONE', #234, #234, #115, .T. ) ;
#114 = CIRCLE ( 'NONE', #5, 0.1250000000000001943 ) ;
#115 = CIRCLE ( 'NONE', #29, 1.199999999999993738 ) ;
#116 = APPROVAL_STATUS ( 'not_yet_approved' ) ;
#117 = AXIS2_PLACEMENT_3D ( 'NONE', #6, #70, #212 ) ;
#118 = DIRECTION ( 'NONE',  ( -4.256963957985708889E-31, -1.000000000000000000, -1.219242935835426903E-16 ) ) ;
#119 = ADVANCED_FACE ( 'NONE', ( #131, #210 ), #186, .T. ) ;
#120 = PRODUCT_DEFINITION_SHAPE ( 'NONE', 'NONE',  #99 ) ;
#121 = DIRECTION ( 'NONE',  ( 3.491481338843133355E-15, -1.219242935835426903E-16, 1.000000000000000000 ) ) ;
#122 = FACE_OUTER_BOUND ( 'NONE', #95, .T. ) ;
#123 = ORIENTED_EDGE ( 'NONE', *, *, #194, .T. ) ;
#124 = DIRECTION ( 'NONE',  ( 0.0000000000000000000, 1.000000000000000000, 0.0000000000000000000 ) ) ;
#125 = EDGE_LOOP ( 'NONE', ( #13 ) ) ;
#126 = EDGE_CURVE ( 'NONE', #81, #81, #11, .T. ) ;
#127 = MANIFOLD_SOLID_BREP ( 'Corps-Déplacer/Copier1[1]', #106 ) ;
#128 = LOCAL_TIME ( 10, 16, 25.00000000000000000, #66 ) ;
#129 = CALENDAR_DATE ( 2021, 1, 11 ) ;
#130 = PERSON_AND_ORGANIZATION ( #227, #92 ) ;
#131 = FACE_OUTER_BOUND ( 'NONE', #55, .T. ) ;
#132 = CARTESIAN_POINT ( 'NONE',  ( 2.094888803305878435E-15, -8.673617379884055194E-17, 0.5999999999999995337 ) ) ;
#133 = CARTESIAN_POINT ( 'NONE',  ( 2.094888803305878435E-15, -8.673617379884055194E-17, 0.5999999999999995337 ) ) ;
#134 = LOCAL_TIME ( 10, 16, 25.00000000000000000, #203 ) ;
#135 = DIRECTION ( 'NONE',  ( 3.491481338843133355E-15, -1.219242935835426903E-16, 1.000000000000000000 ) ) ;
#136 = CC_DESIGN_PERSON_AND_ORGANIZATION_ASSIGNMENT ( #83, #142, ( #159 ) ) ;
#137 = CONICAL_SURFACE ( 'NONE', #157, 2.499999999999992450, 0.2617993877991429130 ) ;
#138 = ORIENTED_EDGE ( 'NONE', *, *, #214, .F. ) ;
#139 =( LENGTH_UNIT ( ) NAMED_UNIT ( * ) SI_UNIT ( .MILLI., .METRE. ) );
#140 = CIRCLE ( 'NONE', #206, 0.1250000000000001110 ) ;
#141 = PERSON_AND_ORGANIZATION ( #227, #92 ) ;
#142 = PERSON_AND_ORGANIZATION_ROLE ( 'creator' ) ;
#143 = AXIS2_PLACEMENT_3D ( 'NONE', #208, #150, #88 ) ;
#144 = ADVANCED_FACE ( 'NONE', ( #202 ), #165, .F. ) ;
#145 = PERSON_AND_ORGANIZATION ( #227, #92 ) ;
#146 = FACE_BOUND ( 'NONE', #110, .T. ) ;
#147 = CIRCLE ( 'NONE', #60, 1.499999999999993783 ) ;
#148 = DIRECTION ( 'NONE',  ( 0.0000000000000000000, -1.000000000000000000, 0.0000000000000000000 ) ) ;
#149 = FACE_OUTER_BOUND ( 'NONE', #218, .T. ) ;
#150 = DIRECTION ( 'NONE',  ( -3.491481338843133355E-15, 1.224646799147353207E-16, -1.000000000000000000 ) ) ;
#151 = EDGE_LOOP ( 'NONE', ( #73 ) ) ;
#152 = ORIENTED_EDGE ( 'NONE', *, *, #76, .T. ) ;
#153 = ADVANCED_FACE ( 'NONE', ( #185 ), #25, .T. ) ;
#154 =( NAMED_UNIT ( * ) PLANE_ANGLE_UNIT ( ) SI_UNIT ( $, .RADIAN. ) );
#155 = ORIENTED_EDGE ( 'NONE', *, *, #161, .T. ) ;
#156 = DIRECTION ( 'NONE',  ( 1.000000000000000000, 0.0000000000000000000, 0.0000000000000000000 ) ) ;
#157 = AXIS2_PLACEMENT_3D ( 'NONE', #207, #43, #167 ) ;
#158 = CARTESIAN_POINT ( 'NONE',  ( 2.093099368696479916E-14, -1.499999999999992006, 5.994874855582091655 ) ) ;
#159 = PRODUCT_DEFINITION_FORMATION_WITH_SPECIFIED_SOURCE ( 'ANY', '', #74, .NOT_KNOWN. ) ;
#160 = DATE_TIME_ROLE ( 'creation_date' ) ;
#161 = EDGE_CURVE ( 'NONE', #196, #196, #140, .T. ) ;
#162 = CALENDAR_DATE ( 2021, 1, 11 ) ;
#163 = ADVANCED_FACE ( 'NONE', ( #146, #122 ), #137, .T. ) ;
#164 = FACE_OUTER_BOUND ( 'NONE', #10, .T. ) ;
#165 = PLANE ( 'NONE',  #64 ) ;
#166 = APPROVAL_PERSON_ORGANIZATION ( #222, #36, #180 ) ;
#167 = DIRECTION ( 'NONE',  ( 0.0000000000000000000, -1.000000000000000000, 0.0000000000000000000 ) ) ;
#168 = DIRECTION ( 'NONE',  ( 3.491481338843133355E-15, -1.219242935835426903E-16, 1.000000000000000000 ) ) ;
#169 = AXIS2_PLACEMENT_3D ( 'NONE', #1, #44, #204 ) ;
#170 = CIRCLE ( 'NONE', #65, 0.1931483474218602669 ) ;
#171 = CARTESIAN_POINT ( 'NONE',  ( 2.094888803305877252E-15, 0.0000000000000000000, 0.5999999999999992006 ) ) ;
#172 = DIRECTION ( 'NONE',  ( 3.491481338843133355E-15, -1.224646799147353207E-16, 1.000000000000000000 ) ) ;
#173 = ADVANCED_FACE ( 'NONE', ( #91, #149 ), #7, .F. ) ;
#174 = ORIENTED_EDGE ( 'NONE', *, *, #126, .F. ) ;
#175 = VERTEX_POINT ( 'NONE', #80 ) ;
#176 = SHAPE_DEFINITION_REPRESENTATION ( #120, #100 ) ;
#177 = SECURITY_CLASSIFICATION ( '', '', #241 ) ;
#178 = DIRECTION ( 'NONE',  ( 4.275831445896958607E-31, 1.000000000000000000, 1.224646799147353207E-16 ) ) ;
#179 = AXIS2_PLACEMENT_3D ( 'NONE', #132, #103, #3 ) ;
#180 = APPROVAL_ROLE ( '' ) ;
#181 = PERSON_AND_ORGANIZATION_ROLE ( 'creator' ) ;
#182 = APPROVAL_DATE_TIME ( #239, #4 ) ;
#183 = DATE_AND_TIME ( #22, #134 ) ;
#184 = AXIS2_PLACEMENT_3D ( 'NONE', #133, #107, #41 ) ;
#185 = FACE_OUTER_BOUND ( 'NONE', #213, .T. ) ;
#186 = CYLINDRICAL_SURFACE ( 'NONE', #117, 1.499999999999991340 ) ;
#187 = DIRECTION ( 'NONE',  ( 0.0000000000000000000, -1.000000000000000000, 0.0000000000000000000 ) ) ;
#188 = CARTESIAN_POINT ( 'NONE',  ( 3.902212535531134027E-15, -1.362672346303078047E-16, 1.117638090205028245 ) ) ;
#189 = CARTESIAN_POINT ( 'NONE',  ( 0.0000000000000000000, 0.0000000000000000000, 0.0000000000000000000 ) ) ;
#190 = ORIENTED_EDGE ( 'NONE', *, *, #194, .F. ) ;
#191 = UNCERTAINTY_MEASURE_WITH_UNIT (LENGTH_MEASURE( 1.000000000000000082E-05 ), #139, 'distance_accuracy_value', 'NONE');
#192 = CARTESIAN_POINT ( 'NONE',  ( 0.0000000000000000000, 0.0000000000000000000, 0.0000000000000000000 ) ) ;
#193 = EDGE_LOOP ( 'NONE', ( #17 ) ) ;
#194 = EDGE_CURVE ( 'NONE', #175, #175, #170, .T. ) ;
#195 =( GEOMETRIC_REPRESENTATION_CONTEXT ( 3 ) GLOBAL_UNCERTAINTY_ASSIGNED_CONTEXT ( ( #191 ) ) GLOBAL_UNIT_ASSIGNED_CONTEXT ( ( #139, #154, #232 ) ) REPRESENTATION_CONTEXT ( 'NONE', 'WORKASPACE' ) );
#196 = VERTEX_POINT ( 'NONE', #79 ) ;
#197 = CARTESIAN_POINT ( 'NONE',  ( 1.326762908760390423E-13, 8.998558695971030697E-33, 38.00000000000000000 ) ) ;
#198 = CC_DESIGN_APPROVAL ( #36, ( #177 ) ) ;
#199 = DATE_TIME_ROLE ( 'classification_date' ) ;
#200 = DIRECTION ( 'NONE',  ( -3.491481338843133355E-15, 1.224646799147353207E-16, -1.000000000000000000 ) ) ;
#201 = DATE_AND_TIME ( #2, #46 ) ;
#202 = FACE_OUTER_BOUND ( 'NONE', #125, .T. ) ;
#203 = COORDINATED_UNIVERSAL_TIME_OFFSET ( 1, 0, .AHEAD. ) ;
#204 = DIRECTION ( 'NONE',  ( 0.0000000000000000000, -1.000000000000000000, 0.0000000000000000000 ) ) ;
#205 = PERSON_AND_ORGANIZATION ( #227, #92 ) ;
#206 = AXIS2_PLACEMENT_3D ( 'NONE', #87, #121, #225 ) ;
#207 = CARTESIAN_POINT ( 'NONE',  ( 3.396137943720632696E-14, -1.185948540219326741E-15, 9.726925663151069656 ) ) ;
#208 = CARTESIAN_POINT ( 'NONE',  ( 1.326762908760390423E-13, -4.653657836759941941E-15, 38.00000000000000000 ) ) ;
#209 = ADVANCED_FACE ( 'NONE', ( #228, #48 ), #15, .T. ) ;
#210 = FACE_OUTER_BOUND ( 'NONE', #53, .T. ) ;
#211 = APPROVAL_PERSON_ORGANIZATION ( #130, #4, #240 ) ;
#212 = DIRECTION ( 'NONE',  ( 4.275831445896958607E-31, 1.000000000000000000, 1.224646799147353207E-16 ) ) ;
#213 = EDGE_LOOP ( 'NONE', ( #233 ) ) ;
#214 = EDGE_CURVE ( 'NONE', #19, #19, #114, .T. ) ;
#215 = CARTESIAN_POINT ( 'NONE',  ( 2.094888803305877252E-15, -7.315457615012551802E-17, 0.5999999999999992006 ) ) ;
#216 = EDGE_LOOP ( 'NONE', ( #155 ) ) ;
#217 = APPLICATION_PROTOCOL_DEFINITION ( 'international standard', 'config_control_design', 1994, #30 ) ;
#218 = EDGE_LOOP ( 'NONE', ( #190 ) ) ;
#219 = EDGE_CURVE ( 'NONE', #109, #109, #84, .T. ) ;
#220 = LOCAL_TIME ( 10, 16, 25.00000000000000000, #68 ) ;
#221 = CARTESIAN_POINT ( 'NONE',  ( 1.326762908760390423E-13, 1.199999999999989297, 38.00000000000000000 ) ) ;
#222 = PERSON_AND_ORGANIZATION ( #227, #92 ) ;
#223 = DIRECTION ( 'NONE',  ( -4.337434547086495813E-31, -1.000000000000000000, -1.219242935835426903E-16 ) ) ;
#224 = DIRECTION ( 'NONE',  ( -3.491481338843133355E-15, 1.224646799147353207E-16, -1.000000000000000000 ) ) ;
#225 = DIRECTION ( 'NONE',  ( -4.256963957985681739E-31, -1.000000000000000000, -1.219242935835420493E-16 ) ) ;
#226 = CC_DESIGN_PERSON_AND_ORGANIZATION_ASSIGNMENT ( #205, #35, ( #159 ) ) ;
#227 = PERSON ( 'UNSPECIFIED', 'UNSPECIFIED', 'UNSPECIFIED', ('UNSPECIFIED'), ('UNSPECIFIED'), ('UNSPECIFIED') ) ;
#228 = FACE_OUTER_BOUND ( 'NONE', #57, .T. ) ;
#229 = EDGE_LOOP ( 'NONE', ( #138 ) ) ;
#230 = AXIS2_PLACEMENT_3D ( 'NONE', #197, #200, #178 ) ;
#231 = PLANE ( 'NONE',  #230 ) ;
#232 =( NAMED_UNIT ( * ) SI_UNIT ( $, .STERADIAN. ) SOLID_ANGLE_UNIT ( ) );
#233 = ORIENTED_EDGE ( 'NONE', *, *, #214, .T. ) ;
#234 = VERTEX_POINT ( 'NONE', #221 ) ;
#235 = CC_DESIGN_PERSON_AND_ORGANIZATION_ASSIGNMENT ( #145, #181, ( #99 ) ) ;
#236 = CARTESIAN_POINT ( 'NONE',  ( 2.094888803305877252E-15, -0.1250000000000002776, 0.5999999999999992006 ) ) ;
#237 = LOCAL_TIME ( 10, 16, 25.00000000000000000, #37 ) ;
#238 = APPROVAL_STATUS ( 'not_yet_approved' ) ;
#239 = DATE_AND_TIME ( #162, #237 ) ;
#240 = APPROVAL_ROLE ( '' ) ;
#241 = SECURITY_CLASSIFICATION_LEVEL ( 'unclassified' ) ;
#242 = AXIS2_PLACEMENT_3D ( 'NONE', #192, #16, #156 ) ;
#243 = DATE_AND_TIME ( #129, #128 ) ;
ENDSEC;
END-ISO-10303-21;
