ISO-10303-21;
HEADER;
FILE_DESCRIPTION (( 'STEP AP203' ),
    '1' );
FILE_NAME ('47899.step',
    '2021-10-15T13:34:59',
    ( '' ),
    ( '' ),
    'SwSTEP 2.0',
    'SolidWorks 2019',
    '' );
FILE_SCHEMA (( 'CONFIG_CONTROL_DESIGN' ));
ENDSEC;

DATA;
#1 = DATE_AND_TIME ( #170, #193 ) ;
#2 = APPROVAL_ROLE ( '' ) ;
#3 = CLOSED_SHELL ( 'NONE', ( #182, #70, #42, #15 ) ) ;
#4 = APPROVAL ( #171, 'UNSPECIFIED' ) ;
#5 = PERSON_AND_ORGANIZATION ( #200, #78 ) ;
#6 = MANIFOLD_SOLID_BREP ( 'Corps-Déplacer/Copier1[1]', #3 ) ;
#7 = APPROVAL_ROLE ( '' ) ;
#8 = APPLICATION_CONTEXT ( 'configuration controlled 3d designs of mechanical parts and assemblies' ) ;
#9 = LOCAL_TIME ( 15, 34, 59.00000000000000000, #37 ) ;
#10 = EDGE_LOOP ( 'NONE', ( #58 ) ) ;
#11 = EDGE_LOOP ( 'NONE', ( #22 ) ) ;
#12 = DIRECTION ( 'NONE',  ( -3.491481338843133355E-15, 1.224646799147353207E-16, -1.000000000000000000 ) ) ;
#13 = APPROVAL_PERSON_ORGANIZATION ( #50, #191, #7 ) ;
#14 = LOCAL_TIME ( 15, 34, 59.00000000000000000, #21 ) ;
#15 = ADVANCED_FACE ( 'NONE', ( #144 ), #143, .F. ) ;
#16 = DIRECTION ( 'NONE',  ( -4.275831445896958607E-31, -1.000000000000000000, -1.224646799147353207E-16 ) ) ;
#17 = VERTEX_POINT ( 'NONE', #31 ) ;
#18 =( NAMED_UNIT ( * ) PLANE_ANGLE_UNIT ( ) SI_UNIT ( $, .RADIAN. ) );
#19 = APPROVAL_DATE_TIME ( #122, #191 ) ;
#20 = APPROVAL_STATUS ( 'not_yet_approved' ) ;
#21 = COORDINATED_UNIVERSAL_TIME_OFFSET ( 1, 0, .AHEAD. ) ;
#22 = ORIENTED_EDGE ( 'NONE', *, *, #125, .T. ) ;
#23 = CIRCLE ( 'NONE', #120, 0.6250000000000002220 ) ;
#24 = CLOSED_SHELL ( 'NONE', ( #137, #172, #75 ) ) ;
#25 = ORIENTED_EDGE ( 'NONE', *, *, #125, .F. ) ;
#26 = CC_DESIGN_DATE_AND_TIME_ASSIGNMENT ( #134, #138, ( #40 ) ) ;
#27 = EDGE_CURVE ( 'NONE', #183, #183, #23, .T. ) ;
#28 = DIRECTION ( 'NONE',  ( -3.491481338843133355E-15, 1.224646799147353207E-16, -1.000000000000000000 ) ) ;
#29 = FACE_OUTER_BOUND ( 'NONE', #110, .T. ) ;
#30 = DIRECTION ( 'NONE',  ( -4.275831445896958607E-31, -1.000000000000000000, -1.224646799147353207E-16 ) ) ;
#31 = CARTESIAN_POINT ( 'NONE',  ( 1.316288464743861212E-13, 0.9249999999999954925, 37.69999999999999574 ) ) ;
#32 = FACE_OUTER_BOUND ( 'NONE', #10, .T. ) ;
#33 = MECHANICAL_CONTEXT ( 'NONE', #159, 'mechanical' ) ;
#34 = DATE_TIME_ROLE ( 'classification_date' ) ;
#35 = PERSON_AND_ORGANIZATION ( #200, #78 ) ;
#36 = CALENDAR_DATE ( 2021, 15, 10 ) ;
#37 = COORDINATED_UNIVERSAL_TIME_OFFSET ( 1, 0, .AHEAD. ) ;
#38 = ADVANCED_BREP_SHAPE_REPRESENTATION ( '47899', ( #6, #135, #188 ), #169 ) ;
#39 = ORIENTED_EDGE ( 'NONE', *, *, #27, .F. ) ;
#40 = PRODUCT_DEFINITION ( 'UNKNOWN', '', #102, #142 ) ;
#41 = EDGE_LOOP ( 'NONE', ( #156 ) ) ;
#42 = ADVANCED_FACE ( 'NONE', ( #195, #57 ), #108, .T. ) ;
#43 = CIRCLE ( 'NONE', #149, 0.9250000000000001554 ) ;
#44 = EDGE_LOOP ( 'NONE', ( #85 ) ) ;
#45 = CARTESIAN_POINT ( 'NONE',  ( 0.0000000000000000000, 0.0000000000000000000, 0.0000000000000000000 ) ) ;
#46 = CYLINDRICAL_SURFACE ( 'NONE', #160, 0.9249999999999962697 ) ;
#47 = CC_DESIGN_PERSON_AND_ORGANIZATION_ASSIGNMENT ( #101, #83, ( #94 ) ) ;
#48 = CARTESIAN_POINT ( 'NONE',  ( 0.0000000000000000000, 0.0000000000000000000, 0.0000000000000000000 ) ) ;
#49 = AXIS2_PLACEMENT_3D ( 'NONE', #111, #28, #113 ) ;
#50 = PERSON_AND_ORGANIZATION ( #200, #78 ) ;
#51 = CALENDAR_DATE ( 2021, 15, 10 ) ;
#52 = DIRECTION ( 'NONE',  ( 0.0000000000000000000, 0.0000000000000000000, 1.000000000000000000 ) ) ;
#53 = PERSON_AND_ORGANIZATION_ROLE ( 'classification_officer' ) ;
#54 = AXIS2_PLACEMENT_3D ( 'NONE', #201, #199, #163 ) ;
#55 = EDGE_LOOP ( 'NONE', ( #178 ) ) ;
#56 = AXIS2_PLACEMENT_3D ( 'NONE', #45, #162, #76 ) ;
#57 = FACE_BOUND ( 'NONE', #71, .T. ) ;
#58 = ORIENTED_EDGE ( 'NONE', *, *, #174, .T. ) ;
#59 = DIRECTION ( 'NONE',  ( -3.491481338843133355E-15, 1.224646799147353207E-16, -1.000000000000000000 ) ) ;
#60 = PLANE ( 'NONE',  #116 ) ;
#61 = FACE_OUTER_BOUND ( 'NONE', #41, .T. ) ;
#62 = CIRCLE ( 'NONE', #65, 0.9249999999999970468 ) ;
#63 = VERTEX_POINT ( 'NONE', #89 ) ;
#64 = DIRECTION ( 'NONE',  ( -4.164172852729178579E-31, -1.000000000000000000, -1.172110456741091498E-16 ) ) ;
#65 = AXIS2_PLACEMENT_3D ( 'NONE', #145, #72, #127 ) ;
#66 = PERSON_AND_ORGANIZATION ( #200, #78 ) ;
#67 = CALENDAR_DATE ( 2021, 15, 10 ) ;
#68 = DATE_AND_TIME ( #187, #95 ) ;
#69 = CARTESIAN_POINT ( 'NONE',  ( 1.326762908760390423E-13, 4.686749320818237970E-33, 38.00000000000000000 ) ) ;
#70 = ADVANCED_FACE ( 'NONE', ( #29, #61 ), #100, .T. ) ;
#71 = EDGE_LOOP ( 'NONE', ( #140 ) ) ;
#72 = DIRECTION ( 'NONE',  ( -3.491481338843133355E-15, 1.224646799147353207E-16, -1.000000000000000000 ) ) ;
#73 = AXIS2_PLACEMENT_3D ( 'NONE', #99, #166, #30 ) ;
#74 = DIRECTION ( 'NONE',  ( -3.491481338843133355E-15, 1.224646799147353207E-16, -1.000000000000000000 ) ) ;
#75 = ADVANCED_FACE ( 'NONE', ( #97 ), #60, .T. ) ;
#76 = DIRECTION ( 'NONE',  ( 4.275831445896958607E-31, 1.000000000000000000, 1.224646799147353454E-16 ) ) ;
#77 = VERTEX_POINT ( 'NONE', #131 ) ;
#78 = ORGANIZATION ( 'UNSPECIFIED', 'UNSPECIFIED', '' ) ;
#79 = COORDINATED_UNIVERSAL_TIME_OFFSET ( 1, 0, .AHEAD. ) ;
#80 = PERSON_AND_ORGANIZATION_ROLE ( 'creator' ) ;
#81 = CIRCLE ( 'NONE', #180, 0.9249999999999954925 ) ;
#82 = PERSON_AND_ORGANIZATION_ROLE ( 'design_supplier' ) ;
#83 = PERSON_AND_ORGANIZATION_ROLE ( 'design_owner' ) ;
#84 = ORIENTED_EDGE ( 'NONE', *, *, #141, .T. ) ;
#85 = ORIENTED_EDGE ( 'NONE', *, *, #141, .F. ) ;
#86 = DIRECTION ( 'NONE',  ( 0.0000000000000000000, 1.000000000000000000, 0.0000000000000000000 ) ) ;
#87 = CARTESIAN_POINT ( 'NONE',  ( 1.316288464743861212E-13, -4.616918432785521081E-15, 37.69999999999999574 ) ) ;
#88 = FACE_OUTER_BOUND ( 'NONE', #44, .T. ) ;
#89 = CARTESIAN_POINT ( 'NONE',  ( 4.189777606611760026E-14, 0.9249999999999954925, 12.00000000000000000 ) ) ;
#90 = CARTESIAN_POINT ( 'NONE',  ( 1.175485634772208223E-15, -4.123048587005941119E-17, 0.3366724666962399581 ) ) ;
#91 = APPROVAL_PERSON_ORGANIZATION ( #136, #196, #2 ) ;
#92 = PERSON_AND_ORGANIZATION_ROLE ( 'creator' ) ;
#93 = DATE_AND_TIME ( #51, #9 ) ;
#94 = PRODUCT ( '47899', '47899', '', ( #33 ) ) ;
#95 = LOCAL_TIME ( 15, 34, 59.00000000000000000, #155 ) ;
#96 = CC_DESIGN_PERSON_AND_ORGANIZATION_ASSIGNMENT ( #189, #82, ( #102 ) ) ;
#97 = FACE_OUTER_BOUND ( 'NONE', #55, .T. ) ;
#98 = DIRECTION ( 'NONE',  ( 4.164172852729178579E-31, 1.000000000000000000, 1.172110456741091498E-16 ) ) ;
#99 = CARTESIAN_POINT ( 'NONE',  ( 4.189777606611760026E-14, 6.936388994811046277E-33, 12.00000000000000000 ) ) ;
#100 = CYLINDRICAL_SURFACE ( 'NONE', #56, 0.9249999999999984901 ) ;
#101 = PERSON_AND_ORGANIZATION ( #200, #78 ) ;
#102 = PRODUCT_DEFINITION_FORMATION_WITH_SPECIFIED_SOURCE ( 'ANY', '', #94, .NOT_KNOWN. ) ;
#103 = EDGE_CURVE ( 'NONE', #17, #17, #43, .T. ) ;
#104 = DIRECTION ( 'NONE',  ( 1.000000000000000000, 0.0000000000000000000, 0.0000000000000000000 ) ) ;
#105 = APPROVAL_DATE_TIME ( #93, #196 ) ;
#106 = CC_DESIGN_PERSON_AND_ORGANIZATION_ASSIGNMENT ( #35, #53, ( #109 ) ) ;
#107 = DIRECTION ( 'NONE',  ( -3.491481338843133355E-15, 1.224646799147353207E-16, -1.000000000000000000 ) ) ;
#108 = CONICAL_SURFACE ( 'NONE', #49, 0.6250000000000002220, 0.7853981633974453924 ) ;
#109 = SECURITY_CLASSIFICATION ( '', '', #192 ) ;
#110 = EDGE_LOOP ( 'NONE', ( #25 ) ) ;
#111 = CARTESIAN_POINT ( 'NONE',  ( 1.326762908760390423E-13, -4.653657836759941941E-15, 38.00000000000000000 ) ) ;
#112 = EDGE_LOOP ( 'NONE', ( #39 ) ) ;
#113 = DIRECTION ( 'NONE',  ( 0.0000000000000000000, 1.000000000000000000, 0.0000000000000000000 ) ) ;
#114 = PLANE ( 'NONE',  #73 ) ;
#115 = DIRECTION ( 'NONE',  ( 3.491481338843133355E-15, -1.224646799147353207E-16, 1.000000000000000000 ) ) ;
#116 = AXIS2_PLACEMENT_3D ( 'NONE', #167, #115, #16 ) ;
#117 = CARTESIAN_POINT ( 'NONE',  ( 0.0000000000000000000, 0.0000000000000000000, 0.0000000000000000000 ) ) ;
#118 = PRODUCT_DEFINITION_SHAPE ( 'NONE', 'NONE',  #40 ) ;
#119 = APPROVAL_ROLE ( '' ) ;
#120 = AXIS2_PLACEMENT_3D ( 'NONE', #179, #107, #126 ) ;
#121 = APPLICATION_PROTOCOL_DEFINITION ( 'international standard', 'config_control_design', 1994, #159 ) ;
#122 = DATE_AND_TIME ( #67, #14 ) ;
#123 = DIRECTION ( 'NONE',  ( 4.275831445896958607E-31, 1.000000000000000000, 1.224646799147353207E-16 ) ) ;
#124 = ORIENTED_EDGE ( 'NONE', *, *, #103, .F. ) ;
#125 = EDGE_CURVE ( 'NONE', #63, #63, #62, .T. ) ;
#126 = DIRECTION ( 'NONE',  ( 0.0000000000000000000, 1.000000000000000000, 0.0000000000000000000 ) ) ;
#127 = DIRECTION ( 'NONE',  ( 0.0000000000000000000, 1.000000000000000000, 0.0000000000000000000 ) ) ;
#128 = DIRECTION ( 'NONE',  ( 4.275831445896958607E-31, 1.000000000000000000, 1.224646799147353207E-16 ) ) ;
#129 = DIRECTION ( 'NONE',  ( 3.491481338843133355E-15, -1.224646799147353207E-16, 1.000000000000000000 ) ) ;
#130 = CC_DESIGN_DATE_AND_TIME_ASSIGNMENT ( #1, #34, ( #109 ) ) ;
#131 = CARTESIAN_POINT ( 'NONE',  ( 4.189777606611760026E-14, 0.9249999999999954925, 12.00000000000000000 ) ) ;
#132 = CONICAL_SURFACE ( 'NONE', #202, 0.9249999999999954925, 1.221730476396026388 ) ;
#133 = DIRECTION ( 'NONE',  ( -3.491481338843133355E-15, 1.224646799147353207E-16, -1.000000000000000000 ) ) ;
#134 = DATE_AND_TIME ( #36, #152 ) ;
#135 = MANIFOLD_SOLID_BREP ( 'Corps-Déplacer/Copier1[2]', #24 ) ;
#136 = PERSON_AND_ORGANIZATION ( #200, #78 ) ;
#137 = ADVANCED_FACE ( 'NONE', ( #198 ), #132, .T. ) ;
#138 = DATE_TIME_ROLE ( 'creation_date' ) ;
#139 = PERSON_AND_ORGANIZATION ( #200, #78 ) ;
#140 = ORIENTED_EDGE ( 'NONE', *, *, #27, .T. ) ;
#141 = EDGE_CURVE ( 'NONE', #148, #148, #81, .T. ) ;
#142 = DESIGN_CONTEXT ( 'detailed design', #8, 'design' ) ;
#143 = PLANE ( 'NONE',  #157 ) ;
#144 = FACE_OUTER_BOUND ( 'NONE', #112, .T. ) ;
#145 = CARTESIAN_POINT ( 'NONE',  ( 4.189777606611760026E-14, -1.469576158976823947E-15, 12.00000000000000000 ) ) ;
#146 = CARTESIAN_POINT ( 'NONE',  ( 1.326762908760390423E-13, 0.6249999999999955591, 38.00000000000000000 ) ) ;
#147 = CC_DESIGN_PERSON_AND_ORGANIZATION_ASSIGNMENT ( #5, #92, ( #102 ) ) ;
#148 = VERTEX_POINT ( 'NONE', #186 ) ;
#149 = AXIS2_PLACEMENT_3D ( 'NONE', #87, #133, #86 ) ;
#150 = COORDINATED_UNIVERSAL_TIME_OFFSET ( 1, 0, .AHEAD. ) ;
#151 = APPROVAL_STATUS ( 'not_yet_approved' ) ;
#152 = LOCAL_TIME ( 15, 34, 59.00000000000000000, #150 ) ;
#153 = CC_DESIGN_SECURITY_CLASSIFICATION ( #109, ( #102 ) ) ;
#154 = PRODUCT_RELATED_PRODUCT_CATEGORY ( 'detail', '', ( #94 ) ) ;
#155 = COORDINATED_UNIVERSAL_TIME_OFFSET ( 1, 0, .AHEAD. ) ;
#156 = ORIENTED_EDGE ( 'NONE', *, *, #103, .T. ) ;
#157 = AXIS2_PLACEMENT_3D ( 'NONE', #69, #12, #123 ) ;
#158 = EDGE_LOOP ( 'NONE', ( #84 ) ) ;
#159 = APPLICATION_CONTEXT ( 'configuration controlled 3d designs of mechanical parts and assemblies' ) ;
#160 = AXIS2_PLACEMENT_3D ( 'NONE', #117, #59, #128 ) ;
#161 =( NAMED_UNIT ( * ) SI_UNIT ( $, .STERADIAN. ) SOLID_ANGLE_UNIT ( ) );
#162 = DIRECTION ( 'NONE',  ( -3.491481338843133355E-15, 1.224646799147353207E-16, -1.000000000000000000 ) ) ;
#163 = DIRECTION ( 'NONE',  ( 0.0000000000000000000, 1.000000000000000000, 0.0000000000000000000 ) ) ;
#164 = CC_DESIGN_PERSON_AND_ORGANIZATION_ASSIGNMENT ( #139, #80, ( #40 ) ) ;
#165 = CC_DESIGN_APPROVAL ( #191, ( #102 ) ) ;
#166 = DIRECTION ( 'NONE',  ( 3.491481338843133355E-15, -1.224646799147353207E-16, 1.000000000000000000 ) ) ;
#167 = CARTESIAN_POINT ( 'NONE',  ( 4.189777606611760026E-14, 6.936388994811046277E-33, 12.00000000000000000 ) ) ;
#168 = APPLICATION_PROTOCOL_DEFINITION ( 'international standard', 'config_control_design', 1994, #8 ) ;
#169 =( GEOMETRIC_REPRESENTATION_CONTEXT ( 3 ) GLOBAL_UNCERTAINTY_ASSIGNED_CONTEXT ( ( #176 ) ) GLOBAL_UNIT_ASSIGNED_CONTEXT ( ( #185, #18, #161 ) ) REPRESENTATION_CONTEXT ( 'NONE', 'WORKASPACE' ) );
#170 = CALENDAR_DATE ( 2021, 15, 10 ) ;
#171 = APPROVAL_STATUS ( 'not_yet_approved' ) ;
#172 = ADVANCED_FACE ( 'NONE', ( #88, #32 ), #46, .T. ) ;
#173 = SHAPE_DEFINITION_REPRESENTATION ( #118, #38 ) ;
#174 = EDGE_CURVE ( 'NONE', #77, #77, #177, .T. ) ;
#175 = EDGE_LOOP ( 'NONE', ( #124 ) ) ;
#176 = UNCERTAINTY_MEASURE_WITH_UNIT (LENGTH_MEASURE( 1.000000000000000082E-05 ), #185, 'distance_accuracy_value', 'NONE');
#177 = CIRCLE ( 'NONE', #54, 0.9249999999999970468 ) ;
#178 = ORIENTED_EDGE ( 'NONE', *, *, #174, .F. ) ;
#179 = CARTESIAN_POINT ( 'NONE',  ( 1.326762908760390423E-13, -4.653657836759941941E-15, 38.00000000000000000 ) ) ;
#180 = AXIS2_PLACEMENT_3D ( 'NONE', #90, #74, #98 ) ;
#181 = FACE_OUTER_BOUND ( 'NONE', #11, .T. ) ;
#182 = ADVANCED_FACE ( 'NONE', ( #181 ), #114, .F. ) ;
#183 = VERTEX_POINT ( 'NONE', #146 ) ;
#184 = CARTESIAN_POINT ( 'NONE',  ( 1.175485634772208223E-15, -4.123048587005941119E-17, 0.3366724666962399581 ) ) ;
#185 =( LENGTH_UNIT ( ) NAMED_UNIT ( * ) SI_UNIT ( .MILLI., .METRE. ) );
#186 = CARTESIAN_POINT ( 'NONE',  ( 1.175485634772208420E-15, 0.9249999999999954925, 0.3366724666962400692 ) ) ;
#187 = CALENDAR_DATE ( 2021, 15, 10 ) ;
#188 = AXIS2_PLACEMENT_3D ( 'NONE', #48, #52, #104 ) ;
#189 = PERSON_AND_ORGANIZATION ( #200, #78 ) ;
#190 = APPROVAL_DATE_TIME ( #68, #4 ) ;
#191 = APPROVAL ( #20, 'UNSPECIFIED' ) ;
#192 = SECURITY_CLASSIFICATION_LEVEL ( 'unclassified' ) ;
#193 = LOCAL_TIME ( 15, 34, 59.00000000000000000, #79 ) ;
#194 = CC_DESIGN_APPROVAL ( #4, ( #40 ) ) ;
#195 = FACE_OUTER_BOUND ( 'NONE', #175, .T. ) ;
#196 = APPROVAL ( #151, 'UNSPECIFIED' ) ;
#197 = APPROVAL_PERSON_ORGANIZATION ( #66, #4, #119 ) ;
#198 = FACE_OUTER_BOUND ( 'NONE', #158, .T. ) ;
#199 = DIRECTION ( 'NONE',  ( -3.491481338843133355E-15, 1.224646799147353207E-16, -1.000000000000000000 ) ) ;
#200 = PERSON ( 'UNSPECIFIED', 'UNSPECIFIED', 'UNSPECIFIED', ('UNSPECIFIED'), ('UNSPECIFIED'), ('UNSPECIFIED') ) ;
#201 = CARTESIAN_POINT ( 'NONE',  ( 4.189777606611760026E-14, -1.469576158976823947E-15, 12.00000000000000000 ) ) ;
#202 = AXIS2_PLACEMENT_3D ( 'NONE', #184, #129, #64 ) ;
#203 = CC_DESIGN_APPROVAL ( #196, ( #109 ) ) ;
ENDSEC;
END-ISO-10303-21;
