ISO-10303-21;
HEADER;
FILE_DESCRIPTION (( 'STEP AP203' ),
    '1' );
FILE_NAME ('47891.step',
    '2021-10-15T13:34:58',
    ( '' ),
    ( '' ),
    'SwSTEP 2.0',
    'SolidWorks 2019',
    '' );
FILE_SCHEMA (( 'CONFIG_CONTROL_DESIGN' ));
ENDSEC;

DATA;
#1 = EDGE_LOOP ( 'NONE', ( #35 ) ) ;
#2 = FACE_OUTER_BOUND ( 'NONE', #1, .T. ) ;
#3 = DIRECTION ( 'NONE',  ( -3.491481338843133355E-15, 1.224646799147353207E-16, -1.000000000000000000 ) ) ;
#4 = CC_DESIGN_PERSON_AND_ORGANIZATION_ASSIGNMENT ( #177, #126, ( #96 ) ) ;
#5 = DIRECTION ( 'NONE',  ( 3.491481338843133355E-15, -1.224646799147353207E-16, 1.000000000000000000 ) ) ;
#6 = DIRECTION ( 'NONE',  ( 4.275831445896958607E-31, 1.000000000000000000, 1.224646799147353207E-16 ) ) ;
#7 = PERSON_AND_ORGANIZATION ( #182, #135 ) ;
#8 = VERTEX_POINT ( 'NONE', #145 ) ;
#9 = APPROVAL_STATUS ( 'not_yet_approved' ) ;
#10 = ADVANCED_FACE ( 'NONE', ( #59 ), #20, .F. ) ;
#11 = VERTEX_POINT ( 'NONE', #65 ) ;
#12 = CIRCLE ( 'NONE', #119, 0.7749999999999979128 ) ;
#13 = EDGE_LOOP ( 'NONE', ( #101 ) ) ;
#14 = PERSON_AND_ORGANIZATION ( #182, #135 ) ;
#15 = EDGE_LOOP ( 'NONE', ( #32 ) ) ;
#16 = CC_DESIGN_DATE_AND_TIME_ASSIGNMENT ( #31, #199, ( #17 ) ) ;
#17 = SECURITY_CLASSIFICATION ( '', '', #81 ) ;
#18 = APPROVAL_STATUS ( 'not_yet_approved' ) ;
#19 = DIRECTION ( 'NONE',  ( 0.0000000000000000000, 1.000000000000000000, 0.0000000000000000000 ) ) ;
#20 = PLANE ( 'NONE',  #27 ) ;
#21 = APPROVAL_PERSON_ORGANIZATION ( #62, #137, #80 ) ;
#22 = DIRECTION ( 'NONE',  ( 4.970141791967083659E-31, 1.000000000000000000, 1.398970545142592951E-16 ) ) ;
#23 = APPROVAL_DATE_TIME ( #179, #85 ) ;
#24 = AXIS2_PLACEMENT_3D ( 'NONE', #74, #163, #76 ) ;
#25 = CARTESIAN_POINT ( 'NONE',  ( 4.189777606611760026E-14, 0.7749999999999963585, 12.00000000000000000 ) ) ;
#26 = APPLICATION_PROTOCOL_DEFINITION ( 'international standard', 'config_control_design', 1994, #115 ) ;
#27 = AXIS2_PLACEMENT_3D ( 'NONE', #75, #124, #71 ) ;
#28 = CARTESIAN_POINT ( 'NONE',  ( 9.848663426469857262E-16, 0.7749999999999963585, 0.2820769315563092516 ) ) ;
#29 = CC_DESIGN_PERSON_AND_ORGANIZATION_ASSIGNMENT ( #7, #131, ( #129 ) ) ;
#30 = AXIS2_PLACEMENT_3D ( 'NONE', #102, #3, #121 ) ;
#31 = DATE_AND_TIME ( #86, #47 ) ;
#32 = ORIENTED_EDGE ( 'NONE', *, *, #33, .F. ) ;
#33 = EDGE_CURVE ( 'NONE', #37, #37, #198, .T. ) ;
#34 = AXIS2_PLACEMENT_3D ( 'NONE', #156, #5, #134 ) ;
#35 = ORIENTED_EDGE ( 'NONE', *, *, #40, .F. ) ;
#36 = CARTESIAN_POINT ( 'NONE',  ( 1.326762908760390423E-13, -4.653657836759941941E-15, 38.00000000000000000 ) ) ;
#37 = VERTEX_POINT ( 'NONE', #28 ) ;
#38 = CARTESIAN_POINT ( 'NONE',  ( 4.189777606611760026E-14, -1.469576158976823947E-15, 12.00000000000000000 ) ) ;
#39 = CARTESIAN_POINT ( 'NONE',  ( 4.189777606611760026E-14, -1.469576158976823947E-15, 12.00000000000000000 ) ) ;
#40 = EDGE_CURVE ( 'NONE', #167, #167, #12, .T. ) ;
#41 = DIRECTION ( 'NONE',  ( 0.0000000000000000000, 1.000000000000000000, 0.0000000000000000000 ) ) ;
#42 = LOCAL_TIME ( 15, 34, 58.00000000000000000, #186 ) ;
#43 = DATE_TIME_ROLE ( 'creation_date' ) ;
#44 = CALENDAR_DATE ( 2021, 15, 10 ) ;
#45 = PERSON_AND_ORGANIZATION ( #182, #135 ) ;
#46 = DATE_AND_TIME ( #94, #164 ) ;
#47 = LOCAL_TIME ( 15, 34, 58.00000000000000000, #149 ) ;
#48 =( LENGTH_UNIT ( ) NAMED_UNIT ( * ) SI_UNIT ( .MILLI., .METRE. ) );
#49 = AXIS2_PLACEMENT_3D ( 'NONE', #141, #89, #22 ) ;
#50 = EDGE_LOOP ( 'NONE', ( #78 ) ) ;
#51 = EDGE_LOOP ( 'NONE', ( #183 ) ) ;
#52 = APPROVAL ( #18, 'UNSPECIFIED' ) ;
#53 = EDGE_LOOP ( 'NONE', ( #162 ) ) ;
#54 = CYLINDRICAL_SURFACE ( 'NONE', #24, 0.7749999999999994671 ) ;
#55 = CC_DESIGN_PERSON_AND_ORGANIZATION_ASSIGNMENT ( #143, #193, ( #17 ) ) ;
#56 = DIRECTION ( 'NONE',  ( -3.491481338843133355E-15, 1.224646799147353207E-16, -1.000000000000000000 ) ) ;
#57 = FACE_OUTER_BOUND ( 'NONE', #116, .T. ) ;
#58 = APPROVAL_PERSON_ORGANIZATION ( #181, #85, #109 ) ;
#59 = FACE_OUTER_BOUND ( 'NONE', #161, .T. ) ;
#60 = DIRECTION ( 'NONE',  ( -3.491481338843133355E-15, 1.224646799147353207E-16, -1.000000000000000000 ) ) ;
#61 = PERSON_AND_ORGANIZATION_ROLE ( 'creator' ) ;
#62 = PERSON_AND_ORGANIZATION ( #182, #135 ) ;
#63 = APPROVAL_DATE_TIME ( #142, #137 ) ;
#64 =( NAMED_UNIT ( * ) SI_UNIT ( $, .STERADIAN. ) SOLID_ANGLE_UNIT ( ) );
#65 = CARTESIAN_POINT ( 'NONE',  ( 1.316288464743861212E-13, 0.7749999999999963585, 37.69999999999999574 ) ) ;
#66 = CALENDAR_DATE ( 2021, 15, 10 ) ;
#67 = APPROVAL_ROLE ( '' ) ;
#68 = DESIGN_CONTEXT ( 'detailed design', #115, 'design' ) ;
#69 = CLOSED_SHELL ( 'NONE', ( #10, #100, #180, #113 ) ) ;
#70 = EDGE_LOOP ( 'NONE', ( #87 ) ) ;
#71 = DIRECTION ( 'NONE',  ( -4.275831445896958607E-31, -1.000000000000000000, -1.224646799147353207E-16 ) ) ;
#72 = ADVANCED_FACE ( 'NONE', ( #172 ), #123, .T. ) ;
#73 = AXIS2_PLACEMENT_3D ( 'NONE', #39, #56, #19 ) ;
#74 = CARTESIAN_POINT ( 'NONE',  ( 0.0000000000000000000, 0.0000000000000000000, 0.0000000000000000000 ) ) ;
#75 = CARTESIAN_POINT ( 'NONE',  ( 4.189777606611760026E-14, 5.811569157814659914E-33, 12.00000000000000000 ) ) ;
#76 = DIRECTION ( 'NONE',  ( 4.275831445896958607E-31, 1.000000000000000000, 1.224646799147353207E-16 ) ) ;
#77 = AXIS2_PLACEMENT_3D ( 'NONE', #175, #92, #138 ) ;
#78 = ORIENTED_EDGE ( 'NONE', *, *, #187, .T. ) ;
#79 = MANIFOLD_SOLID_BREP ( 'Corps-Déplacer/Copier1[1]', #69 ) ;
#80 = APPROVAL_ROLE ( '' ) ;
#81 = SECURITY_CLASSIFICATION_LEVEL ( 'unclassified' ) ;
#82 = EDGE_CURVE ( 'NONE', #128, #128, #160, .T. ) ;
#83 = COORDINATED_UNIVERSAL_TIME_OFFSET ( 1, 0, .AHEAD. ) ;
#84 = ADVANCED_FACE ( 'NONE', ( #2 ), #165, .T. ) ;
#85 = APPROVAL ( #9, 'UNSPECIFIED' ) ;
#86 = CALENDAR_DATE ( 2021, 15, 10 ) ;
#87 = ORIENTED_EDGE ( 'NONE', *, *, #169, .T. ) ;
#88 = ORIENTED_EDGE ( 'NONE', *, *, #33, .T. ) ;
#89 = DIRECTION ( 'NONE',  ( -3.491481338843133355E-15, 1.224646799147353207E-16, -1.000000000000000000 ) ) ;
#90 = LOCAL_TIME ( 15, 34, 58.00000000000000000, #107 ) ;
#91 = DIRECTION ( 'NONE',  ( -3.491481338843133355E-15, 1.224646799147353207E-16, -1.000000000000000000 ) ) ;
#92 = DIRECTION ( 'NONE',  ( 3.491481338843133355E-15, -1.224646799147353207E-16, 1.000000000000000000 ) ) ;
#93 = CC_DESIGN_PERSON_AND_ORGANIZATION_ASSIGNMENT ( #45, #61, ( #114 ) ) ;
#94 = CALENDAR_DATE ( 2021, 15, 10 ) ;
#95 =( NAMED_UNIT ( * ) PLANE_ANGLE_UNIT ( ) SI_UNIT ( $, .RADIAN. ) );
#96 = PRODUCT_DEFINITION ( 'UNKNOWN', '', #114, #68 ) ;
#97 = DIRECTION ( 'NONE',  ( 0.0000000000000000000, 0.0000000000000000000, 1.000000000000000000 ) ) ;
#98 = AXIS2_PLACEMENT_3D ( 'NONE', #157, #60, #6 ) ;
#99 = CC_DESIGN_PERSON_AND_ORGANIZATION_ASSIGNMENT ( #130, #178, ( #114 ) ) ;
#100 = ADVANCED_FACE ( 'NONE', ( #188, #103 ), #54, .T. ) ;
#101 = ORIENTED_EDGE ( 'NONE', *, *, #169, .F. ) ;
#102 = CARTESIAN_POINT ( 'NONE',  ( 0.0000000000000000000, 0.0000000000000000000, 0.0000000000000000000 ) ) ;
#103 = FACE_OUTER_BOUND ( 'NONE', #70, .T. ) ;
#104 = CIRCLE ( 'NONE', #174, 0.7750000000000010214 ) ;
#105 = FACE_OUTER_BOUND ( 'NONE', #51, .T. ) ;
#106 = CARTESIAN_POINT ( 'NONE',  ( 1.326762908760390423E-13, -4.653657836759941941E-15, 38.00000000000000000 ) ) ;
#107 = COORDINATED_UNIVERSAL_TIME_OFFSET ( 1, 0, .AHEAD. ) ;
#108 = PRODUCT_RELATED_PRODUCT_CATEGORY ( 'detail', '', ( #129 ) ) ;
#109 = APPROVAL_ROLE ( '' ) ;
#110 = MECHANICAL_CONTEXT ( 'NONE', #202, 'mechanical' ) ;
#111 = CALENDAR_DATE ( 2021, 15, 10 ) ;
#112 = CC_DESIGN_APPROVAL ( #137, ( #114 ) ) ;
#113 = ADVANCED_FACE ( 'NONE', ( #105 ), #166, .F. ) ;
#114 = PRODUCT_DEFINITION_FORMATION_WITH_SPECIFIED_SOURCE ( 'ANY', '', #129, .NOT_KNOWN. ) ;
#115 = APPLICATION_CONTEXT ( 'configuration controlled 3d designs of mechanical parts and assemblies' ) ;
#116 = EDGE_LOOP ( 'NONE', ( #152 ) ) ;
#117 = APPROVAL_DATE_TIME ( #132, #52 ) ;
#118 = CC_DESIGN_DATE_AND_TIME_ASSIGNMENT ( #46, #43, ( #96 ) ) ;
#119 = AXIS2_PLACEMENT_3D ( 'NONE', #38, #139, #192 ) ;
#120 = DIRECTION ( 'NONE',  ( 0.0000000000000000000, 1.000000000000000000, 0.0000000000000000000 ) ) ;
#121 = DIRECTION ( 'NONE',  ( 4.275831445896958607E-31, 1.000000000000000000, 1.224646799147353207E-16 ) ) ;
#122 = ORIENTED_EDGE ( 'NONE', *, *, #82, .T. ) ;
#123 = CONICAL_SURFACE ( 'NONE', #77, 0.7749999999999963585, 1.221730476396026610 ) ;
#124 = DIRECTION ( 'NONE',  ( 3.491481338843133355E-15, -1.224646799147353207E-16, 1.000000000000000000 ) ) ;
#125 = CARTESIAN_POINT ( 'NONE',  ( 1.316288464743861212E-13, -4.616918432785521081E-15, 37.69999999999999574 ) ) ;
#126 = PERSON_AND_ORGANIZATION_ROLE ( 'creator' ) ;
#127 = AXIS2_PLACEMENT_3D ( 'NONE', #36, #176, #41 ) ;
#128 = VERTEX_POINT ( 'NONE', #25 ) ;
#129 = PRODUCT ( '47891', '47891', '', ( #110 ) ) ;
#130 = PERSON_AND_ORGANIZATION ( #182, #135 ) ;
#131 = PERSON_AND_ORGANIZATION_ROLE ( 'design_owner' ) ;
#132 = DATE_AND_TIME ( #66, #42 ) ;
#133 = LOCAL_TIME ( 15, 34, 58.00000000000000000, #195 ) ;
#134 = DIRECTION ( 'NONE',  ( -4.275831445896958607E-31, -1.000000000000000000, -1.224646799147353207E-16 ) ) ;
#135 = ORGANIZATION ( 'UNSPECIFIED', 'UNSPECIFIED', '' ) ;
#136 = CYLINDRICAL_SURFACE ( 'NONE', #30, 0.7749999999999971356 ) ;
#137 = APPROVAL ( #144, 'UNSPECIFIED' ) ;
#138 = DIRECTION ( 'NONE',  ( -4.970141791967083659E-31, -1.000000000000000000, -1.398970545142592951E-16 ) ) ;
#139 = DIRECTION ( 'NONE',  ( -3.491481338843133355E-15, 1.224646799147353207E-16, -1.000000000000000000 ) ) ;
#140 = CLOSED_SHELL ( 'NONE', ( #72, #201, #84 ) ) ;
#141 = CARTESIAN_POINT ( 'NONE',  ( 9.848663426469853318E-16, -3.454446113437410627E-17, 0.2820769315563091961 ) ) ;
#142 = DATE_AND_TIME ( #44, #133 ) ;
#143 = PERSON_AND_ORGANIZATION ( #182, #135 ) ;
#144 = APPROVAL_STATUS ( 'not_yet_approved' ) ;
#145 = CARTESIAN_POINT ( 'NONE',  ( 1.326762908760390423E-13, 0.4749999999999964251, 38.00000000000000000 ) ) ;
#146 = AXIS2_PLACEMENT_3D ( 'NONE', #106, #153, #120 ) ;
#147 = EDGE_LOOP ( 'NONE', ( #88 ) ) ;
#148 = UNCERTAINTY_MEASURE_WITH_UNIT (LENGTH_MEASURE( 1.000000000000000082E-05 ), #48, 'distance_accuracy_value', 'NONE');
#149 = COORDINATED_UNIVERSAL_TIME_OFFSET ( 1, 0, .AHEAD. ) ;
#150 = CC_DESIGN_APPROVAL ( #52, ( #17 ) ) ;
#151 = SHAPE_DEFINITION_REPRESENTATION ( #203, #184 ) ;
#152 = ORIENTED_EDGE ( 'NONE', *, *, #40, .T. ) ;
#153 = DIRECTION ( 'NONE',  ( -3.491481338843133355E-15, 1.224646799147353207E-16, -1.000000000000000000 ) ) ;
#154 = CONICAL_SURFACE ( 'NONE', #127, 0.4750000000000010880, 0.7853981633974456145 ) ;
#155 = FACE_BOUND ( 'NONE', #50, .T. ) ;
#156 = CARTESIAN_POINT ( 'NONE',  ( 4.189777606611760026E-14, 5.811569157814659914E-33, 12.00000000000000000 ) ) ;
#157 = CARTESIAN_POINT ( 'NONE',  ( 1.326762908760390423E-13, 3.561929483821850238E-33, 38.00000000000000000 ) ) ;
#158 = APPROVAL_PERSON_ORGANIZATION ( #14, #52, #67 ) ;
#159 = CARTESIAN_POINT ( 'NONE',  ( 0.0000000000000000000, 0.0000000000000000000, 0.0000000000000000000 ) ) ;
#160 = CIRCLE ( 'NONE', #73, 0.7749999999999979128 ) ;
#161 = EDGE_LOOP ( 'NONE', ( #122 ) ) ;
#162 = ORIENTED_EDGE ( 'NONE', *, *, #82, .F. ) ;
#163 = DIRECTION ( 'NONE',  ( -3.491481338843133355E-15, 1.224646799147353207E-16, -1.000000000000000000 ) ) ;
#164 = LOCAL_TIME ( 15, 34, 58.00000000000000000, #83 ) ;
#165 = PLANE ( 'NONE',  #34 ) ;
#166 = PLANE ( 'NONE',  #98 ) ;
#167 = VERTEX_POINT ( 'NONE', #168 ) ;
#168 = CARTESIAN_POINT ( 'NONE',  ( 4.189777606611760026E-14, 0.7749999999999963585, 12.00000000000000000 ) ) ;
#169 = EDGE_CURVE ( 'NONE', #11, #11, #104, .T. ) ;
#170 = AXIS2_PLACEMENT_3D ( 'NONE', #159, #97, #196 ) ;
#171 = CIRCLE ( 'NONE', #146, 0.4750000000000010880 ) ;
#172 = FACE_OUTER_BOUND ( 'NONE', #147, .T. ) ;
#173 = DIRECTION ( 'NONE',  ( 0.0000000000000000000, 1.000000000000000000, 0.0000000000000000000 ) ) ;
#174 = AXIS2_PLACEMENT_3D ( 'NONE', #125, #91, #173 ) ;
#175 = CARTESIAN_POINT ( 'NONE',  ( 9.848663426469853318E-16, -3.454446113437410627E-17, 0.2820769315563091961 ) ) ;
#176 = DIRECTION ( 'NONE',  ( -3.491481338843133355E-15, 1.224646799147353207E-16, -1.000000000000000000 ) ) ;
#177 = PERSON_AND_ORGANIZATION ( #182, #135 ) ;
#178 = PERSON_AND_ORGANIZATION_ROLE ( 'design_supplier' ) ;
#179 = DATE_AND_TIME ( #111, #90 ) ;
#180 = ADVANCED_FACE ( 'NONE', ( #190, #155 ), #154, .T. ) ;
#181 = PERSON_AND_ORGANIZATION ( #182, #135 ) ;
#182 = PERSON ( 'UNSPECIFIED', 'UNSPECIFIED', 'UNSPECIFIED', ('UNSPECIFIED'), ('UNSPECIFIED'), ('UNSPECIFIED') ) ;
#183 = ORIENTED_EDGE ( 'NONE', *, *, #187, .F. ) ;
#184 = ADVANCED_BREP_SHAPE_REPRESENTATION ( '47891', ( #79, #200, #170 ), #191 ) ;
#185 = CC_DESIGN_SECURITY_CLASSIFICATION ( #17, ( #114 ) ) ;
#186 = COORDINATED_UNIVERSAL_TIME_OFFSET ( 1, 0, .AHEAD. ) ;
#187 = EDGE_CURVE ( 'NONE', #8, #8, #171, .T. ) ;
#188 = FACE_OUTER_BOUND ( 'NONE', #53, .T. ) ;
#189 = FACE_OUTER_BOUND ( 'NONE', #15, .T. ) ;
#190 = FACE_OUTER_BOUND ( 'NONE', #13, .T. ) ;
#191 =( GEOMETRIC_REPRESENTATION_CONTEXT ( 3 ) GLOBAL_UNCERTAINTY_ASSIGNED_CONTEXT ( ( #148 ) ) GLOBAL_UNIT_ASSIGNED_CONTEXT ( ( #48, #95, #64 ) ) REPRESENTATION_CONTEXT ( 'NONE', 'WORKASPACE' ) );
#192 = DIRECTION ( 'NONE',  ( 0.0000000000000000000, 1.000000000000000000, 0.0000000000000000000 ) ) ;
#193 = PERSON_AND_ORGANIZATION_ROLE ( 'classification_officer' ) ;
#194 = CC_DESIGN_APPROVAL ( #85, ( #96 ) ) ;
#195 = COORDINATED_UNIVERSAL_TIME_OFFSET ( 1, 0, .AHEAD. ) ;
#196 = DIRECTION ( 'NONE',  ( 1.000000000000000000, 0.0000000000000000000, 0.0000000000000000000 ) ) ;
#197 = APPLICATION_PROTOCOL_DEFINITION ( 'international standard', 'config_control_design', 1994, #202 ) ;
#198 = CIRCLE ( 'NONE', #49, 0.7749999999999963585 ) ;
#199 = DATE_TIME_ROLE ( 'classification_date' ) ;
#200 = MANIFOLD_SOLID_BREP ( 'Corps-Déplacer/Copier1[2]', #140 ) ;
#201 = ADVANCED_FACE ( 'NONE', ( #189, #57 ), #136, .T. ) ;
#202 = APPLICATION_CONTEXT ( 'configuration controlled 3d designs of mechanical parts and assemblies' ) ;
#203 = PRODUCT_DEFINITION_SHAPE ( 'NONE', 'NONE',  #96 ) ;
ENDSEC;
END-ISO-10303-21;
