ISO-10303-21;
HEADER;
FILE_DESCRIPTION (( 'STEP AP203' ),
    '1' );
FILE_NAME ('47890.step',
    '2021-10-15T13:34:57',
    ( '' ),
    ( '' ),
    'SwSTEP 2.0',
    'SolidWorks 2019',
    '' );
FILE_SCHEMA (( 'CONFIG_CONTROL_DESIGN' ));
ENDSEC;

DATA;
#1 = ORIENTED_EDGE ( 'NONE', *, *, #31, .T. ) ;
#2 = DIRECTION ( 'NONE',  ( 0.0000000000000000000, 1.000000000000000000, 0.0000000000000000000 ) ) ;
#3 = DIRECTION ( 'NONE',  ( -3.491481338843133355E-15, 1.224646799147353207E-16, -1.000000000000000000 ) ) ;
#4 = EDGE_CURVE ( 'NONE', #197, #197, #29, .T. ) ;
#5 = CYLINDRICAL_SURFACE ( 'NONE', #14, 0.5249999999999959144 ) ;
#6 = PLANE ( 'NONE',  #95 ) ;
#7 = AXIS2_PLACEMENT_3D ( 'NONE', #175, #195, #135 ) ;
#8 = ADVANCED_BREP_SHAPE_REPRESENTATION ( '47890', ( #83, #85, #23 ), #148 ) ;
#9 = PERSON_AND_ORGANIZATION_ROLE ( 'design_owner' ) ;
#10 = PERSON_AND_ORGANIZATION_ROLE ( 'creator' ) ;
#11 = COORDINATED_UNIVERSAL_TIME_OFFSET ( 1, 0, .AHEAD. ) ;
#12 = EDGE_CURVE ( 'NONE', #105, #105, #102, .T. ) ;
#13 = APPROVAL_DATE_TIME ( #75, #131 ) ;
#14 = AXIS2_PLACEMENT_3D ( 'NONE', #101, #194, #179 ) ;
#15 = CC_DESIGN_APPROVAL ( #80, ( #178 ) ) ;
#16 = DATE_AND_TIME ( #188, #96 ) ;
#17 = ORIENTED_EDGE ( 'NONE', *, *, #31, .F. ) ;
#18 = EDGE_LOOP ( 'NONE', ( #99 ) ) ;
#19 = EDGE_CURVE ( 'NONE', #77, #77, #26, .T. ) ;
#20 = DIRECTION ( 'NONE',  ( 4.275831445896958607E-31, 1.000000000000000000, 1.224646799147352961E-16 ) ) ;
#21 = CYLINDRICAL_SURFACE ( 'NONE', #67, 0.5249999999999979128 ) ;
#22 = CIRCLE ( 'NONE', #140, 0.5249999999999964695 ) ;
#23 = AXIS2_PLACEMENT_3D ( 'NONE', #108, #154, #120 ) ;
#24 = DIRECTION ( 'NONE',  ( -3.491481338843133355E-15, 1.224646799147353207E-16, -1.000000000000000000 ) ) ;
#25 = DIRECTION ( 'NONE',  ( 3.491481338843133355E-15, -1.224646799147353207E-16, 1.000000000000000000 ) ) ;
#26 = CIRCLE ( 'NONE', #129, 0.5249999999999992450 ) ;
#27 = APPROVAL_DATE_TIME ( #168, #97 ) ;
#28 = DATE_AND_TIME ( #62, #155 ) ;
#29 = CIRCLE ( 'NONE', #114, 0.3249999999999992339 ) ;
#30 = APPROVAL_PERSON_ORGANIZATION ( #44, #97, #201 ) ;
#31 = EDGE_CURVE ( 'NONE', #47, #47, #22, .T. ) ;
#32 = AXIS2_PLACEMENT_3D ( 'NONE', #180, #55, #146 ) ;
#33 = APPROVAL_DATE_TIME ( #16, #80 ) ;
#34 = CC_DESIGN_PERSON_AND_ORGANIZATION_ASSIGNMENT ( #81, #183, ( #203 ) ) ;
#35 = ORIENTED_EDGE ( 'NONE', *, *, #19, .T. ) ;
#36 = ADVANCED_FACE ( 'NONE', ( #128 ), #70, .F. ) ;
#37 = DIRECTION ( 'NONE',  ( -4.275831445896958607E-31, -1.000000000000000000, -1.224646799147353207E-16 ) ) ;
#38 = LOCAL_TIME ( 15, 34, 57.00000000000000000, #166 ) ;
#39 = CARTESIAN_POINT ( 'NONE',  ( 1.047444401652940007E-13, -3.673940397442059178E-15, 30.00000000000000000 ) ) ;
#40 = FACE_OUTER_BOUND ( 'NONE', #68, .T. ) ;
#41 = EDGE_CURVE ( 'NONE', #74, #74, #144, .T. ) ;
#42 = FACE_OUTER_BOUND ( 'NONE', #125, .T. ) ;
#43 = AXIS2_PLACEMENT_3D ( 'NONE', #165, #25, #71 ) ;
#44 = PERSON_AND_ORGANIZATION ( #186, #134 ) ;
#45 =( NAMED_UNIT ( * ) PLANE_ANGLE_UNIT ( ) SI_UNIT ( $, .RADIAN. ) );
#46 = SECURITY_CLASSIFICATION_LEVEL ( 'unclassified' ) ;
#47 = VERTEX_POINT ( 'NONE', #61 ) ;
#48 = DATE_TIME_ROLE ( 'creation_date' ) ;
#49 = AXIS2_PLACEMENT_3D ( 'NONE', #58, #118, #151 ) ;
#50 = LOCAL_TIME ( 15, 34, 57.00000000000000000, #11 ) ;
#51 = APPROVAL_STATUS ( 'not_yet_approved' ) ;
#52 = ADVANCED_FACE ( 'NONE', ( #150, #132 ), #158, .T. ) ;
#53 = EDGE_LOOP ( 'NONE', ( #66 ) ) ;
#54 = FACE_OUTER_BOUND ( 'NONE', #145, .T. ) ;
#55 = DIRECTION ( 'NONE',  ( 3.491481338843133355E-15, -1.224646799147353207E-16, 1.000000000000000000 ) ) ;
#56 = DIRECTION ( 'NONE',  ( -3.491481338843133355E-15, 1.224646799147353207E-16, -1.000000000000000000 ) ) ;
#57 = LOCAL_TIME ( 15, 34, 57.00000000000000000, #123 ) ;
#58 = CARTESIAN_POINT ( 'NONE',  ( 6.671675224382778509E-16, -2.340108657489849945E-17, 0.1910843729897571119 ) ) ;
#59 = DIRECTION ( 'NONE',  ( -3.491481338843133355E-15, 1.224646799147353207E-16, -1.000000000000000000 ) ) ;
#60 = APPROVAL_STATUS ( 'not_yet_approved' ) ;
#61 = CARTESIAN_POINT ( 'NONE',  ( 2.793185071074506684E-14, 0.5249999999999954703, 8.000000000000000000 ) ) ;
#62 = CALENDAR_DATE ( 2021, 15, 10 ) ;
#63 = CARTESIAN_POINT ( 'NONE',  ( 2.793185071074506684E-14, 0.5249999999999954703, 8.000000000000000000 ) ) ;
#64 = CALENDAR_DATE ( 2021, 15, 10 ) ;
#65 = CLOSED_SHELL ( 'NONE', ( #36, #84, #52, #192 ) ) ;
#66 = ORIENTED_EDGE ( 'NONE', *, *, #4, .F. ) ;
#67 = AXIS2_PLACEMENT_3D ( 'NONE', #115, #24, #20 ) ;
#68 = EDGE_LOOP ( 'NONE', ( #35 ) ) ;
#69 = DIRECTION ( 'NONE',  ( -3.491481338843133355E-15, 1.224646799147353207E-16, -1.000000000000000000 ) ) ;
#70 = PLANE ( 'NONE',  #32 ) ;
#71 = DIRECTION ( 'NONE',  ( -3.668437989309052306E-31, -1.000000000000000000, -1.032573497605251222E-16 ) ) ;
#72 = PRODUCT_DEFINITION_FORMATION_WITH_SPECIFIED_SOURCE ( 'ANY', '', #122, .NOT_KNOWN. ) ;
#73 = DIRECTION ( 'NONE',  ( 4.275831445896958607E-31, 1.000000000000000000, 1.224646799147353207E-16 ) ) ;
#74 = VERTEX_POINT ( 'NONE', #137 ) ;
#75 = DATE_AND_TIME ( #93, #38 ) ;
#76 = ADVANCED_FACE ( 'NONE', ( #54 ), #176, .T. ) ;
#77 = VERTEX_POINT ( 'NONE', #181 ) ;
#78 = APPROVAL_PERSON_ORGANIZATION ( #170, #131, #171 ) ;
#79 = CALENDAR_DATE ( 2021, 15, 10 ) ;
#80 = APPROVAL ( #51, 'UNSPECIFIED' ) ;
#81 = PERSON_AND_ORGANIZATION ( #186, #134 ) ;
#82 = SHAPE_DEFINITION_REPRESENTATION ( #107, #8 ) ;
#83 = MANIFOLD_SOLID_BREP ( 'Corps-Déplacer/Copier1[1]', #65 ) ;
#84 = ADVANCED_FACE ( 'NONE', ( #133, #40 ), #21, .T. ) ;
#85 = MANIFOLD_SOLID_BREP ( 'Corps-Déplacer/Copier1[2]', #92 ) ;
#86 = CARTESIAN_POINT ( 'NONE',  ( 1.047444401652940007E-13, 2.437109646825457716E-33, 30.00000000000000000 ) ) ;
#87 = CARTESIAN_POINT ( 'NONE',  ( 1.040461438975253866E-13, -3.649447461459112464E-15, 29.80000000000000426 ) ) ;
#88 = DIRECTION ( 'NONE',  ( 0.0000000000000000000, 1.000000000000000000, 0.0000000000000000000 ) ) ;
#89 = ADVANCED_FACE ( 'NONE', ( #117, #130 ), #5, .T. ) ;
#90 = FACE_OUTER_BOUND ( 'NONE', #53, .T. ) ;
#91 = PERSON_AND_ORGANIZATION ( #186, #134 ) ;
#92 = CLOSED_SHELL ( 'NONE', ( #149, #89, #76 ) ) ;
#93 = CALENDAR_DATE ( 2021, 15, 10 ) ;
#94 = CC_DESIGN_PERSON_AND_ORGANIZATION_ASSIGNMENT ( #91, #10, ( #72 ) ) ;
#95 = AXIS2_PLACEMENT_3D ( 'NONE', #86, #147, #73 ) ;
#96 = LOCAL_TIME ( 15, 34, 57.00000000000000000, #124 ) ;
#97 = APPROVAL ( #200, 'UNSPECIFIED' ) ;
#98 = APPROVAL_ROLE ( '' ) ;
#99 = ORIENTED_EDGE ( 'NONE', *, *, #41, .F. ) ;
#100 = DIRECTION ( 'NONE',  ( 0.0000000000000000000, 1.000000000000000000, 0.0000000000000000000 ) ) ;
#101 = CARTESIAN_POINT ( 'NONE',  ( 0.0000000000000000000, 0.0000000000000000000, 0.0000000000000000000 ) ) ;
#102 = CIRCLE ( 'NONE', #7, 0.5249999999999964695 ) ;
#103 = APPROVAL_PERSON_ORGANIZATION ( #159, #80, #98 ) ;
#104 = DIRECTION ( 'NONE',  ( 0.0000000000000000000, 1.000000000000000000, 0.0000000000000000000 ) ) ;
#105 = VERTEX_POINT ( 'NONE', #63 ) ;
#106 = APPLICATION_PROTOCOL_DEFINITION ( 'international standard', 'config_control_design', 1994, #177 ) ;
#107 = PRODUCT_DEFINITION_SHAPE ( 'NONE', 'NONE',  #203 ) ;
#108 = CARTESIAN_POINT ( 'NONE',  ( 0.0000000000000000000, 0.0000000000000000000, 0.0000000000000000000 ) ) ;
#109 = PERSON_AND_ORGANIZATION ( #186, #134 ) ;
#110 = CC_DESIGN_PERSON_AND_ORGANIZATION_ASSIGNMENT ( #185, #9, ( #122 ) ) ;
#111 = DESIGN_CONTEXT ( 'detailed design', #177, 'design' ) ;
#112 = DATE_AND_TIME ( #79, #50 ) ;
#113 = CC_DESIGN_DATE_AND_TIME_ASSIGNMENT ( #112, #142, ( #178 ) ) ;
#114 = AXIS2_PLACEMENT_3D ( 'NONE', #39, #69, #88 ) ;
#115 = CARTESIAN_POINT ( 'NONE',  ( 0.0000000000000000000, 0.0000000000000000000, 0.0000000000000000000 ) ) ;
#116 = DIRECTION ( 'NONE',  ( 3.491481338843133355E-15, -1.224646799147353207E-16, 1.000000000000000000 ) ) ;
#117 = FACE_OUTER_BOUND ( 'NONE', #18, .T. ) ;
#118 = DIRECTION ( 'NONE',  ( -3.491481338843133355E-15, 1.224646799147353207E-16, -1.000000000000000000 ) ) ;
#119 = CARTESIAN_POINT ( 'NONE',  ( 1.047444401652940007E-13, 0.3249999999999955147, 30.00000000000000000 ) ) ;
#120 = DIRECTION ( 'NONE',  ( 1.000000000000000000, 0.0000000000000000000, 0.0000000000000000000 ) ) ;
#121 =( NAMED_UNIT ( * ) SI_UNIT ( $, .STERADIAN. ) SOLID_ANGLE_UNIT ( ) );
#122 = PRODUCT ( '47890', '47890', '', ( #157 ) ) ;
#123 = COORDINATED_UNIVERSAL_TIME_OFFSET ( 1, 0, .AHEAD. ) ;
#124 = COORDINATED_UNIVERSAL_TIME_OFFSET ( 1, 0, .AHEAD. ) ;
#125 = EDGE_LOOP ( 'NONE', ( #202 ) ) ;
#126 = AXIS2_PLACEMENT_3D ( 'NONE', #193, #116, #37 ) ;
#127 = ORIENTED_EDGE ( 'NONE', *, *, #19, .F. ) ;
#128 = FACE_OUTER_BOUND ( 'NONE', #143, .T. ) ;
#129 = AXIS2_PLACEMENT_3D ( 'NONE', #87, #59, #104 ) ;
#130 = FACE_OUTER_BOUND ( 'NONE', #160, .T. ) ;
#131 = APPROVAL ( #60, 'UNSPECIFIED' ) ;
#132 = FACE_BOUND ( 'NONE', #162, .T. ) ;
#133 = FACE_OUTER_BOUND ( 'NONE', #141, .T. ) ;
#134 = ORGANIZATION ( 'UNSPECIFIED', 'UNSPECIFIED', '' ) ;
#135 = DIRECTION ( 'NONE',  ( 0.0000000000000000000, 1.000000000000000000, 0.0000000000000000000 ) ) ;
#136 = APPLICATION_PROTOCOL_DEFINITION ( 'international standard', 'config_control_design', 1994, #169 ) ;
#137 = CARTESIAN_POINT ( 'NONE',  ( 6.671675224382780481E-16, 0.5249999999999954703, 0.1910843729897571674 ) ) ;
#138 = PRODUCT_RELATED_PRODUCT_CATEGORY ( 'detail', '', ( #122 ) ) ;
#139 = COORDINATED_UNIVERSAL_TIME_OFFSET ( 1, 0, .AHEAD. ) ;
#140 = AXIS2_PLACEMENT_3D ( 'NONE', #163, #3, #2 ) ;
#141 = EDGE_LOOP ( 'NONE', ( #174 ) ) ;
#142 = DATE_TIME_ROLE ( 'classification_date' ) ;
#143 = EDGE_LOOP ( 'NONE', ( #161 ) ) ;
#144 = CIRCLE ( 'NONE', #49, 0.5249999999999954703 ) ;
#145 = EDGE_LOOP ( 'NONE', ( #17 ) ) ;
#146 = DIRECTION ( 'NONE',  ( -4.275831445896958607E-31, -1.000000000000000000, -1.224646799147353207E-16 ) ) ;
#147 = DIRECTION ( 'NONE',  ( -3.491481338843133355E-15, 1.224646799147353207E-16, -1.000000000000000000 ) ) ;
#148 =( GEOMETRIC_REPRESENTATION_CONTEXT ( 3 ) GLOBAL_UNCERTAINTY_ASSIGNED_CONTEXT ( ( #189 ) ) GLOBAL_UNIT_ASSIGNED_CONTEXT ( ( #153, #45, #121 ) ) REPRESENTATION_CONTEXT ( 'NONE', 'WORKASPACE' ) );
#149 = ADVANCED_FACE ( 'NONE', ( #42 ), #167, .T. ) ;
#150 = FACE_OUTER_BOUND ( 'NONE', #191, .T. ) ;
#151 = DIRECTION ( 'NONE',  ( 3.668437989309052306E-31, 1.000000000000000000, 1.032573497605251222E-16 ) ) ;
#152 = CC_DESIGN_PERSON_AND_ORGANIZATION_ASSIGNMENT ( #109, #156, ( #178 ) ) ;
#153 =( LENGTH_UNIT ( ) NAMED_UNIT ( * ) SI_UNIT ( .MILLI., .METRE. ) );
#154 = DIRECTION ( 'NONE',  ( 0.0000000000000000000, 0.0000000000000000000, 1.000000000000000000 ) ) ;
#155 = LOCAL_TIME ( 15, 34, 57.00000000000000000, #139 ) ;
#156 = PERSON_AND_ORGANIZATION_ROLE ( 'classification_officer' ) ;
#157 = MECHANICAL_CONTEXT ( 'NONE', #169, 'mechanical' ) ;
#158 = CONICAL_SURFACE ( 'NONE', #173, 0.3249999999999992339, 0.7853981633974599363 ) ;
#159 = PERSON_AND_ORGANIZATION ( #186, #134 ) ;
#160 = EDGE_LOOP ( 'NONE', ( #1 ) ) ;
#161 = ORIENTED_EDGE ( 'NONE', *, *, #12, .T. ) ;
#162 = EDGE_LOOP ( 'NONE', ( #187 ) ) ;
#163 = CARTESIAN_POINT ( 'NONE',  ( 2.793185071074506684E-14, -9.797174393178825657E-16, 8.000000000000000000 ) ) ;
#164 = CARTESIAN_POINT ( 'NONE',  ( 1.047444401652940007E-13, -3.673940397442059178E-15, 30.00000000000000000 ) ) ;
#165 = CARTESIAN_POINT ( 'NONE',  ( 6.671675224382778509E-16, -2.340108657489849945E-17, 0.1910843729897571119 ) ) ;
#166 = COORDINATED_UNIVERSAL_TIME_OFFSET ( 1, 0, .AHEAD. ) ;
#167 = CONICAL_SURFACE ( 'NONE', #43, 0.5249999999999954703, 1.221730476396026388 ) ;
#168 = DATE_AND_TIME ( #64, #57 ) ;
#169 = APPLICATION_CONTEXT ( 'configuration controlled 3d designs of mechanical parts and assemblies' ) ;
#170 = PERSON_AND_ORGANIZATION ( #186, #134 ) ;
#171 = APPROVAL_ROLE ( '' ) ;
#172 = CC_DESIGN_DATE_AND_TIME_ASSIGNMENT ( #28, #48, ( #203 ) ) ;
#173 = AXIS2_PLACEMENT_3D ( 'NONE', #164, #56, #100 ) ;
#174 = ORIENTED_EDGE ( 'NONE', *, *, #12, .F. ) ;
#175 = CARTESIAN_POINT ( 'NONE',  ( 2.793185071074506684E-14, -9.797174393178825657E-16, 8.000000000000000000 ) ) ;
#176 = PLANE ( 'NONE',  #126 ) ;
#177 = APPLICATION_CONTEXT ( 'configuration controlled 3d designs of mechanical parts and assemblies' ) ;
#178 = SECURITY_CLASSIFICATION ( '', '', #46 ) ;
#179 = DIRECTION ( 'NONE',  ( 4.275831445896959482E-31, 1.000000000000000000, 1.224646799147353207E-16 ) ) ;
#180 = CARTESIAN_POINT ( 'NONE',  ( 2.793185071074506684E-14, 3.936869429487335851E-33, 8.000000000000000000 ) ) ;
#181 = CARTESIAN_POINT ( 'NONE',  ( 1.040461438975253866E-13, 0.5249999999999954703, 29.80000000000000426 ) ) ;
#182 = PERSON_AND_ORGANIZATION_ROLE ( 'design_supplier' ) ;
#183 = PERSON_AND_ORGANIZATION_ROLE ( 'creator' ) ;
#184 = CC_DESIGN_PERSON_AND_ORGANIZATION_ASSIGNMENT ( #198, #182, ( #72 ) ) ;
#185 = PERSON_AND_ORGANIZATION ( #186, #134 ) ;
#186 = PERSON ( 'UNSPECIFIED', 'UNSPECIFIED', 'UNSPECIFIED', ('UNSPECIFIED'), ('UNSPECIFIED'), ('UNSPECIFIED') ) ;
#187 = ORIENTED_EDGE ( 'NONE', *, *, #4, .T. ) ;
#188 = CALENDAR_DATE ( 2021, 15, 10 ) ;
#189 = UNCERTAINTY_MEASURE_WITH_UNIT (LENGTH_MEASURE( 1.000000000000000082E-05 ), #153, 'distance_accuracy_value', 'NONE');
#190 = CC_DESIGN_APPROVAL ( #97, ( #72 ) ) ;
#191 = EDGE_LOOP ( 'NONE', ( #127 ) ) ;
#192 = ADVANCED_FACE ( 'NONE', ( #90 ), #6, .F. ) ;
#193 = CARTESIAN_POINT ( 'NONE',  ( 2.793185071074506684E-14, 3.936869429487335851E-33, 8.000000000000000000 ) ) ;
#194 = DIRECTION ( 'NONE',  ( -3.491481338843133355E-15, 1.224646799147353207E-16, -1.000000000000000000 ) ) ;
#195 = DIRECTION ( 'NONE',  ( -3.491481338843133355E-15, 1.224646799147353207E-16, -1.000000000000000000 ) ) ;
#196 = CC_DESIGN_APPROVAL ( #131, ( #203 ) ) ;
#197 = VERTEX_POINT ( 'NONE', #119 ) ;
#198 = PERSON_AND_ORGANIZATION ( #186, #134 ) ;
#199 = CC_DESIGN_SECURITY_CLASSIFICATION ( #178, ( #72 ) ) ;
#200 = APPROVAL_STATUS ( 'not_yet_approved' ) ;
#201 = APPROVAL_ROLE ( '' ) ;
#202 = ORIENTED_EDGE ( 'NONE', *, *, #41, .T. ) ;
#203 = PRODUCT_DEFINITION ( 'UNKNOWN', '', #72, #111 ) ;
ENDSEC;
END-ISO-10303-21;
