ISO-10303-21;
HEADER;
FILE_DESCRIPTION (( 'STEP AP203' ),
    '1' );
FILE_NAME ('47858.step',
    '2021-10-07T13:48:18',
    ( '' ),
    ( '' ),
    'SwSTEP 2.0',
    'SolidWorks 2019',
    '' );
FILE_SCHEMA (( 'CONFIG_CONTROL_DESIGN' ));
ENDSEC;

DATA;
#1 = CALENDAR_DATE ( 2021, 7, 10 ) ;
#2 = CALENDAR_DATE ( 2021, 7, 10 ) ;
#3 = CALENDAR_DATE ( 2021, 7, 10 ) ;
#4 = CC_DESIGN_DATE_AND_TIME_ASSIGNMENT ( #143, #17, ( #144 ) ) ;
#5 = EDGE_LOOP ( 'NONE', ( #82 ) ) ;
#6 = SHAPE_DEFINITION_REPRESENTATION ( #91, #208 ) ;
#7 = ORIENTED_EDGE ( 'NONE', *, *, #196, .T. ) ;
#8 = AXIS2_PLACEMENT_3D ( 'NONE', #197, #92, #34 ) ;
#9 = DIRECTION ( 'NONE',  ( -3.491481338843133355E-15, 1.224646799147353207E-16, -1.000000000000000000 ) ) ;
#10 = CARTESIAN_POINT ( 'NONE',  ( 0.0000000000000000000, 0.0000000000000000000, 0.0000000000000000000 ) ) ;
#11 = DIRECTION ( 'NONE',  ( 0.0000000000000000000, 1.000000000000000000, 0.0000000000000000000 ) ) ;
#12 = LOCAL_TIME ( 15, 48, 18.00000000000000000, #41 ) ;
#13 = CYLINDRICAL_SURFACE ( 'NONE', #83, 1.249999999999998446 ) ;
#14 = CARTESIAN_POINT ( 'NONE',  ( 2.223767256895308478E-15, -7.799925558553541761E-17, 0.6369122561692199813 ) ) ;
#15 = APPROVAL_ROLE ( '' ) ;
#16 = AXIS2_PLACEMENT_3D ( 'NONE', #121, #172, #185 ) ;
#17 = DATE_TIME_ROLE ( 'creation_date' ) ;
#18 = APPROVAL_ROLE ( '' ) ;
#19 = EDGE_CURVE ( 'NONE', #120, #120, #28, .T. ) ;
#20 =( NAMED_UNIT ( * ) PLANE_ANGLE_UNIT ( ) SI_UNIT ( $, .RADIAN. ) );
#21 = PRODUCT ( '47858', '47858', '', ( #141 ) ) ;
#22 = ORIENTED_EDGE ( 'NONE', *, *, #140, .F. ) ;
#23 = COORDINATED_UNIVERSAL_TIME_OFFSET ( 1, 0, .AHEAD. ) ;
#24 = CC_DESIGN_PERSON_AND_ORGANIZATION_ASSIGNMENT ( #37, #158, ( #44 ) ) ;
#25 = CIRCLE ( 'NONE', #8, 1.060000000000001608 ) ;
#26 = EDGE_LOOP ( 'NONE', ( #213 ) ) ;
#27 = EDGE_LOOP ( 'NONE', ( #177 ) ) ;
#28 = CIRCLE ( 'NONE', #211, 1.249999999999996447 ) ;
#29 = CARTESIAN_POINT ( 'NONE',  ( 4.304678644990302666E-14, -1.509878018048370106E-15, 12.32908965343808383 ) ) ;
#30 = FACE_OUTER_BOUND ( 'NONE', #85, .T. ) ;
#31 = APPLICATION_CONTEXT ( 'configuration controlled 3d designs of mechanical parts and assemblies' ) ;
#32 = DIRECTION ( 'NONE',  ( 3.491481338843133355E-15, -1.224646799147353207E-16, 1.000000000000000000 ) ) ;
#33 = PLANE ( 'NONE',  #16 ) ;
#34 = DIRECTION ( 'NONE',  ( 0.0000000000000000000, 1.000000000000000000, 0.0000000000000000000 ) ) ;
#35 = DATE_TIME_ROLE ( 'classification_date' ) ;
#36 =( GEOMETRIC_REPRESENTATION_CONTEXT ( 3 ) GLOBAL_UNCERTAINTY_ASSIGNED_CONTEXT ( ( #200 ) ) GLOBAL_UNIT_ASSIGNED_CONTEXT ( ( #161, #20, #77 ) ) REPRESENTATION_CONTEXT ( 'NONE', 'WORKASPACE' ) );
#37 = PERSON_AND_ORGANIZATION ( #206, #55 ) ;
#38 = CC_DESIGN_PERSON_AND_ORGANIZATION_ASSIGNMENT ( #188, #201, ( #21 ) ) ;
#39 = PERSON_AND_ORGANIZATION_ROLE ( 'creator' ) ;
#40 = LOCAL_TIME ( 15, 48, 18.00000000000000000, #94 ) ;
#41 = COORDINATED_UNIVERSAL_TIME_OFFSET ( 1, 0, .AHEAD. ) ;
#42 = EDGE_LOOP ( 'NONE', ( #7 ) ) ;
#43 = ORIENTED_EDGE ( 'NONE', *, *, #160, .T. ) ;
#44 = PRODUCT_DEFINITION_FORMATION_WITH_SPECIFIED_SOURCE ( 'ANY', '', #21, .NOT_KNOWN. ) ;
#45 = ORIENTED_EDGE ( 'NONE', *, *, #140, .T. ) ;
#46 = CARTESIAN_POINT ( 'NONE',  ( 1.490862531686017501E-13, 1.249999999999995559, 42.69999999999998863 ) ) ;
#47 = AXIS2_PLACEMENT_3D ( 'NONE', #10, #9, #182 ) ;
#48 = CARTESIAN_POINT ( 'NONE',  ( 4.304678644990302666E-14, 1.249999999999994893, 12.32908965343808383 ) ) ;
#49 = DIRECTION ( 'NONE',  ( -4.275831445896958607E-31, -1.000000000000000000, -1.224646799147353207E-16 ) ) ;
#50 = FACE_BOUND ( 'NONE', #97, .T. ) ;
#51 = AXIS2_PLACEMENT_3D ( 'NONE', #198, #218, #183 ) ;
#52 = DIRECTION ( 'NONE',  ( -3.491481338843133355E-15, 1.224646799147353207E-16, -1.000000000000000000 ) ) ;
#53 = PERSON_AND_ORGANIZATION ( #206, #55 ) ;
#54 = APPROVAL_STATUS ( 'not_yet_approved' ) ;
#55 = ORGANIZATION ( 'UNSPECIFIED', 'UNSPECIFIED', '' ) ;
#56 = CC_DESIGN_PERSON_AND_ORGANIZATION_ASSIGNMENT ( #207, #112, ( #98 ) ) ;
#57 = PERSON_AND_ORGANIZATION ( #206, #55 ) ;
#58 = APPLICATION_CONTEXT ( 'configuration controlled 3d designs of mechanical parts and assemblies' ) ;
#59 = APPROVAL_DATE_TIME ( #205, #187 ) ;
#60 = PERSON_AND_ORGANIZATION ( #206, #55 ) ;
#61 = CLOSED_SHELL ( 'NONE', ( #101, #122, #109 ) ) ;
#62 = EDGE_LOOP ( 'NONE', ( #45 ) ) ;
#63 = DIRECTION ( 'NONE',  ( -3.491481338843133355E-15, 1.224646799147353207E-16, -1.000000000000000000 ) ) ;
#64 = CALENDAR_DATE ( 2021, 7, 10 ) ;
#65 = AXIS2_PLACEMENT_3D ( 'NONE', #14, #102, #73 ) ;
#66 = VERTEX_POINT ( 'NONE', #46 ) ;
#67 = CARTESIAN_POINT ( 'NONE',  ( 2.223767256895308478E-15, -7.799925558553541761E-17, 0.6369122561692199813 ) ) ;
#68 = CC_DESIGN_APPROVAL ( #219, ( #98 ) ) ;
#69 = LOCAL_TIME ( 15, 48, 18.00000000000000000, #111 ) ;
#70 = CC_DESIGN_PERSON_AND_ORGANIZATION_ASSIGNMENT ( #173, #39, ( #44 ) ) ;
#71 = DIRECTION ( 'NONE',  ( -3.491481338843133355E-15, 1.224646799147353207E-16, -1.000000000000000000 ) ) ;
#72 = VERTEX_POINT ( 'NONE', #79 ) ;
#73 = DIRECTION ( 'NONE',  ( 3.633830083749506947E-31, 1.000000000000000000, 1.022832238193873610E-16 ) ) ;
#74 = CARTESIAN_POINT ( 'NONE',  ( 1.501336975702547217E-13, 0.9499999999999955147, 43.00000000000000000 ) ) ;
#75 = PRODUCT_RELATED_PRODUCT_CATEGORY ( 'detail', '', ( #21 ) ) ;
#76 = DATE_AND_TIME ( #1, #69 ) ;
#77 =( NAMED_UNIT ( * ) SI_UNIT ( $, .STERADIAN. ) SOLID_ANGLE_UNIT ( ) );
#78 = CIRCLE ( 'NONE', #51, 1.250000000000000666 ) ;
#79 = CARTESIAN_POINT ( 'NONE',  ( 4.189777606611761289E-14, 1.060000000000000275, 12.00000000000000355 ) ) ;
#80 = MANIFOLD_SOLID_BREP ( 'Corps-Déplacer/Copier1[2]', #61 ) ;
#81 = APPROVAL_ROLE ( '' ) ;
#82 = ORIENTED_EDGE ( 'NONE', *, *, #19, .F. ) ;
#83 = AXIS2_PLACEMENT_3D ( 'NONE', #118, #52, #108 ) ;
#84 = CC_DESIGN_PERSON_AND_ORGANIZATION_ASSIGNMENT ( #93, #174, ( #144 ) ) ;
#85 = EDGE_LOOP ( 'NONE', ( #162 ) ) ;
#86 = CONICAL_SURFACE ( 'NONE', #95, 0.9500000000000008438, 0.7853981633974336241 ) ;
#87 = DIRECTION ( 'NONE',  ( -3.491481338843133355E-15, 1.224646799147353207E-16, -1.000000000000000000 ) ) ;
#88 = FACE_OUTER_BOUND ( 'NONE', #178, .T. ) ;
#89 = FACE_OUTER_BOUND ( 'NONE', #179, .T. ) ;
#90 = CARTESIAN_POINT ( 'NONE',  ( 4.189777606611761289E-14, 1.060000000000000275, 12.00000000000000355 ) ) ;
#91 = PRODUCT_DEFINITION_SHAPE ( 'NONE', 'NONE',  #144 ) ;
#92 = DIRECTION ( 'NONE',  ( -3.491481338843133355E-15, 1.224646799147353207E-16, -1.000000000000000000 ) ) ;
#93 = PERSON_AND_ORGANIZATION ( #206, #55 ) ;
#94 = COORDINATED_UNIVERSAL_TIME_OFFSET ( 1, 0, .AHEAD. ) ;
#95 = AXIS2_PLACEMENT_3D ( 'NONE', #195, #87, #169 ) ;
#96 = APPROVAL_STATUS ( 'not_yet_approved' ) ;
#97 = EDGE_LOOP ( 'NONE', ( #210 ) ) ;
#98 = SECURITY_CLASSIFICATION ( '', '', #128 ) ;
#99 = ORIENTED_EDGE ( 'NONE', *, *, #196, .F. ) ;
#100 = FACE_OUTER_BOUND ( 'NONE', #26, .T. ) ;
#101 = ADVANCED_FACE ( 'NONE', ( #150 ), #138, .T. ) ;
#102 = DIRECTION ( 'NONE',  ( -3.491481338843133355E-15, 1.224646799147353207E-16, -1.000000000000000000 ) ) ;
#103 = ADVANCED_FACE ( 'NONE', ( #123, #89 ), #189, .T. ) ;
#104 = FACE_OUTER_BOUND ( 'NONE', #42, .T. ) ;
#105 = APPROVAL_PERSON_ORGANIZATION ( #60, #219, #18 ) ;
#106 = CC_DESIGN_DATE_AND_TIME_ASSIGNMENT ( #76, #35, ( #98 ) ) ;
#107 = FACE_OUTER_BOUND ( 'NONE', #131, .T. ) ;
#108 = DIRECTION ( 'NONE',  ( 4.275831445896959482E-31, 1.000000000000000000, 1.224646799147353207E-16 ) ) ;
#109 = ADVANCED_FACE ( 'NONE', ( #30 ), #194, .T. ) ;
#110 = AXIS2_PLACEMENT_3D ( 'NONE', #67, #32, #216 ) ;
#111 = COORDINATED_UNIVERSAL_TIME_OFFSET ( 1, 0, .AHEAD. ) ;
#112 = PERSON_AND_ORGANIZATION_ROLE ( 'classification_officer' ) ;
#113 = AXIS2_PLACEMENT_3D ( 'NONE', #134, #136, #186 ) ;
#114 = APPROVAL_DATE_TIME ( #209, #219 ) ;
#115 = DIRECTION ( 'NONE',  ( 0.0000000000000000000, 1.000000000000000000, 0.0000000000000000000 ) ) ;
#116 = APPROVAL_PERSON_ORGANIZATION ( #57, #187, #81 ) ;
#117 = EDGE_LOOP ( 'NONE', ( #130 ) ) ;
#118 = CARTESIAN_POINT ( 'NONE',  ( 0.0000000000000000000, 0.0000000000000000000, 0.0000000000000000000 ) ) ;
#119 = VERTEX_POINT ( 'NONE', #90 ) ;
#120 = VERTEX_POINT ( 'NONE', #48 ) ;
#121 = CARTESIAN_POINT ( 'NONE',  ( 1.501336975702547217E-13, 7.123858967643751109E-33, 43.00000000000000000 ) ) ;
#122 = ADVANCED_FACE ( 'NONE', ( #100, #88 ), #167, .T. ) ;
#123 = FACE_BOUND ( 'NONE', #146, .T. ) ;
#124 = APPROVAL_DATE_TIME ( #202, #165 ) ;
#125 = VERTEX_POINT ( 'NONE', #74 ) ;
#126 = CIRCLE ( 'NONE', #184, 1.060000000000001608 ) ;
#127 = DIRECTION ( 'NONE',  ( 1.000000000000000000, 0.0000000000000000000, 0.0000000000000000000 ) ) ;
#128 = SECURITY_CLASSIFICATION_LEVEL ( 'unclassified' ) ;
#129 = AXIS2_PLACEMENT_3D ( 'NONE', #29, #154, #221 ) ;
#130 = ORIENTED_EDGE ( 'NONE', *, *, #212, .F. ) ;
#131 = EDGE_LOOP ( 'NONE', ( #22 ) ) ;
#132 = CARTESIAN_POINT ( 'NONE',  ( 1.501336975702547217E-13, -5.265981236333618470E-15, 43.00000000000000000 ) ) ;
#133 = FACE_OUTER_BOUND ( 'NONE', #62, .T. ) ;
#134 = CARTESIAN_POINT ( 'NONE',  ( 4.189777606611760657E-14, -2.044936283779689079E-31, 12.00000000000000178 ) ) ;
#135 = EDGE_CURVE ( 'NONE', #199, #199, #180, .T. ) ;
#136 = DIRECTION ( 'NONE',  ( 3.491481338843133355E-15, -1.224646799147353207E-16, 1.000000000000000000 ) ) ;
#137 = DIRECTION ( 'NONE',  ( 0.0000000000000000000, 1.000000000000000000, 0.0000000000000000000 ) ) ;
#138 = CONICAL_SURFACE ( 'NONE', #110, 1.059999999999998499, 1.029744258676649649 ) ;
#139 = APPROVAL_STATUS ( 'not_yet_approved' ) ;
#140 = EDGE_CURVE ( 'NONE', #66, #66, #78, .T. ) ;
#141 = MECHANICAL_CONTEXT ( 'NONE', #31, 'mechanical' ) ;
#142 = LOCAL_TIME ( 15, 48, 18.00000000000000000, #145 ) ;
#143 = DATE_AND_TIME ( #2, #40 ) ;
#144 = PRODUCT_DEFINITION ( 'UNKNOWN', '', #44, #168 ) ;
#145 = COORDINATED_UNIVERSAL_TIME_OFFSET ( 1, 0, .AHEAD. ) ;
#146 = EDGE_LOOP ( 'NONE', ( #99 ) ) ;
#147 = APPROVAL_PERSON_ORGANIZATION ( #53, #165, #15 ) ;
#148 = CARTESIAN_POINT ( 'NONE',  ( 4.304678644990302666E-14, -1.509878018048370106E-15, 12.32908965343808383 ) ) ;
#149 = MANIFOLD_SOLID_BREP ( 'Corps-Déplacer/Copier1[1]', #217 ) ;
#150 = FACE_OUTER_BOUND ( 'NONE', #27, .T. ) ;
#151 = FACE_OUTER_BOUND ( 'NONE', #5, .T. ) ;
#152 = DIRECTION ( 'NONE',  ( -3.491481338843133355E-15, 1.224646799147353207E-16, -1.000000000000000000 ) ) ;
#153 = CIRCLE ( 'NONE', #191, 0.9500000000000008438 ) ;
#154 = DIRECTION ( 'NONE',  ( 3.491481338843133355E-15, -1.224646799147353207E-16, 1.000000000000000000 ) ) ;
#155 = CARTESIAN_POINT ( 'NONE',  ( 4.189777606611761289E-14, -1.469576158976824342E-15, 12.00000000000000355 ) ) ;
#156 = CARTESIAN_POINT ( 'NONE',  ( 4.189777606611760657E-14, -2.044936283779689079E-31, 12.00000000000000178 ) ) ;
#157 = CARTESIAN_POINT ( 'NONE',  ( 0.0000000000000000000, 0.0000000000000000000, 0.0000000000000000000 ) ) ;
#158 = PERSON_AND_ORGANIZATION_ROLE ( 'design_supplier' ) ;
#159 = CALENDAR_DATE ( 2021, 7, 10 ) ;
#160 = EDGE_CURVE ( 'NONE', #119, #119, #126, .T. ) ;
#161 =( LENGTH_UNIT ( ) NAMED_UNIT ( * ) SI_UNIT ( .MILLI., .METRE. ) );
#162 = ORIENTED_EDGE ( 'NONE', *, *, #160, .F. ) ;
#163 = LOCAL_TIME ( 15, 48, 18.00000000000000000, #23 ) ;
#164 = AXIS2_PLACEMENT_3D ( 'NONE', #157, #223, #127 ) ;
#165 = APPROVAL ( #139, 'UNSPECIFIED' ) ;
#166 = ADVANCED_FACE ( 'NONE', ( #107, #50 ), #86, .T. ) ;
#167 = CYLINDRICAL_SURFACE ( 'NONE', #47, 1.060000000000000275 ) ;
#168 = DESIGN_CONTEXT ( 'detailed design', #58, 'design' ) ;
#169 = DIRECTION ( 'NONE',  ( 0.0000000000000000000, 1.000000000000000000, 0.0000000000000000000 ) ) ;
#170 = CC_DESIGN_APPROVAL ( #187, ( #44 ) ) ;
#171 = PLANE ( 'NONE',  #175 ) ;
#172 = DIRECTION ( 'NONE',  ( -3.491481338843133355E-15, 1.224646799147353207E-16, -1.000000000000000000 ) ) ;
#173 = PERSON_AND_ORGANIZATION ( #206, #55 ) ;
#174 = PERSON_AND_ORGANIZATION_ROLE ( 'creator' ) ;
#175 = AXIS2_PLACEMENT_3D ( 'NONE', #156, #220, #49 ) ;
#176 = APPLICATION_PROTOCOL_DEFINITION ( 'international standard', 'config_control_design', 1994, #31 ) ;
#177 = ORIENTED_EDGE ( 'NONE', *, *, #135, .T. ) ;
#178 = EDGE_LOOP ( 'NONE', ( #43 ) ) ;
#179 = EDGE_LOOP ( 'NONE', ( #193 ) ) ;
#180 = CIRCLE ( 'NONE', #65, 1.059999999999998499 ) ;
#181 = FACE_OUTER_BOUND ( 'NONE', #117, .T. ) ;
#182 = DIRECTION ( 'NONE',  ( 4.275831445896958607E-31, 1.000000000000000000, 1.224646799147353207E-16 ) ) ;
#183 = DIRECTION ( 'NONE',  ( 0.0000000000000000000, 1.000000000000000000, 0.0000000000000000000 ) ) ;
#184 = AXIS2_PLACEMENT_3D ( 'NONE', #155, #152, #11 ) ;
#185 = DIRECTION ( 'NONE',  ( 4.275831445896958607E-31, 1.000000000000000000, 1.224646799147353207E-16 ) ) ;
#186 = DIRECTION ( 'NONE',  ( -4.275831445896958607E-31, -1.000000000000000000, -1.224646799147353207E-16 ) ) ;
#187 = APPROVAL ( #96, 'UNSPECIFIED' ) ;
#188 = PERSON_AND_ORGANIZATION ( #206, #55 ) ;
#189 = CONICAL_SURFACE ( 'NONE', #129, 1.249999999999996447, 0.5235987755982943748 ) ;
#190 = ADVANCED_FACE ( 'NONE', ( #181 ), #33, .F. ) ;
#191 = AXIS2_PLACEMENT_3D ( 'NONE', #132, #71, #137 ) ;
#192 = ADVANCED_FACE ( 'NONE', ( #104 ), #171, .F. ) ;
#193 = ORIENTED_EDGE ( 'NONE', *, *, #19, .T. ) ;
#194 = PLANE ( 'NONE',  #113 ) ;
#195 = CARTESIAN_POINT ( 'NONE',  ( 1.501336975702547217E-13, -5.265981236333618470E-15, 43.00000000000000000 ) ) ;
#196 = EDGE_CURVE ( 'NONE', #72, #72, #25, .T. ) ;
#197 = CARTESIAN_POINT ( 'NONE',  ( 4.189777606611761289E-14, -1.469576158976824342E-15, 12.00000000000000355 ) ) ;
#198 = CARTESIAN_POINT ( 'NONE',  ( 1.490862531686017501E-13, -5.229241832359196822E-15, 42.69999999999998863 ) ) ;
#199 = VERTEX_POINT ( 'NONE', #214 ) ;
#200 = UNCERTAINTY_MEASURE_WITH_UNIT (LENGTH_MEASURE( 1.000000000000000082E-05 ), #161, 'distance_accuracy_value', 'NONE');
#201 = PERSON_AND_ORGANIZATION_ROLE ( 'design_owner' ) ;
#202 = DATE_AND_TIME ( #159, #142 ) ;
#203 = CC_DESIGN_APPROVAL ( #165, ( #144 ) ) ;
#204 = APPLICATION_PROTOCOL_DEFINITION ( 'international standard', 'config_control_design', 1994, #58 ) ;
#205 = DATE_AND_TIME ( #3, #12 ) ;
#206 = PERSON ( 'UNSPECIFIED', 'UNSPECIFIED', 'UNSPECIFIED', ('UNSPECIFIED'), ('UNSPECIFIED'), ('UNSPECIFIED') ) ;
#207 = PERSON_AND_ORGANIZATION ( #206, #55 ) ;
#208 = ADVANCED_BREP_SHAPE_REPRESENTATION ( '47858', ( #149, #80, #164 ), #36 ) ;
#209 = DATE_AND_TIME ( #64, #163 ) ;
#210 = ORIENTED_EDGE ( 'NONE', *, *, #212, .T. ) ;
#211 = AXIS2_PLACEMENT_3D ( 'NONE', #148, #63, #115 ) ;
#212 = EDGE_CURVE ( 'NONE', #125, #125, #153, .T. ) ;
#213 = ORIENTED_EDGE ( 'NONE', *, *, #135, .F. ) ;
#214 = CARTESIAN_POINT ( 'NONE',  ( 2.223767256895308873E-15, 1.059999999999998499, 0.6369122561692200923 ) ) ;
#215 = ADVANCED_FACE ( 'NONE', ( #151, #133 ), #13, .T. ) ;
#216 = DIRECTION ( 'NONE',  ( -3.633830083749506947E-31, -1.000000000000000000, -1.022832238193873610E-16 ) ) ;
#217 = CLOSED_SHELL ( 'NONE', ( #192, #103, #215, #166, #190 ) ) ;
#218 = DIRECTION ( 'NONE',  ( -3.491481338843133355E-15, 1.224646799147353207E-16, -1.000000000000000000 ) ) ;
#219 = APPROVAL ( #54, 'UNSPECIFIED' ) ;
#220 = DIRECTION ( 'NONE',  ( 3.491481338843133355E-15, -1.224646799147353207E-16, 1.000000000000000000 ) ) ;
#221 = DIRECTION ( 'NONE',  ( 0.0000000000000000000, -1.000000000000000000, 0.0000000000000000000 ) ) ;
#222 = CC_DESIGN_SECURITY_CLASSIFICATION ( #98, ( #44 ) ) ;
#223 = DIRECTION ( 'NONE',  ( 0.0000000000000000000, 0.0000000000000000000, 1.000000000000000000 ) ) ;
ENDSEC;
END-ISO-10303-21;
